Guitar Tabs for Buried Alive Intro

(/) Slide Up  (\) Slide Down  (h) Hammer On  (p) Pull Off  (b) Bend (r) Release (v) Vibrato (x) Muted

Tabs & Chords
BPM : 133.0
Check Track 2 for Chord Positions 

    Am                                              A        D                                
E|-----------------10-------8-----------7-----------------------------0--------------0-----0--
B|-----10----10----------10-------8-----------8-----10----8--10-10----------------------------
G|--10----------------------------------------------------------------------7-----10----7-----
D|--------------------------------------------------------------------------------------------
A|--------------------------------------------------------------------------------------------
E|--------------------------------------------------------------------------------------------

       Am             G                       Am                                     Em       
E|-----------0--0-----------------------------------8-----------10-8-----8-----------7--------
B|-----------------0-----------0-----0--0--------10-------10----------10----9--8-----------8--
G|-----------------------7-----------------0--------------------------------------------------
D|-----10-------------11----10----10----------------------------------------------------------
A|--------------------------------------------0-----------------------------------------------
E|--------------------------------------------------------------------------------------------

       A        D              Dm                         F                 E                    
E|-----------------------0-----0-----------0--------0--------------------------------------------
B|-----10----8--10-10-------------------------------------------8-----10----9--10-9--7--9-----10-
G|--------------------------------7-----10----7-----------10-------------------------------------
D|-----------------------------------------------------------------------------------------------
A|-----------------------------------------------------------------------------------------------
E|-----------------------------------------------------------------------------------------------

          Am             Bm                C     Dm                      Am       G     D     
E|--------------------------------------------------------------------------------------------
B|--10----------8--10----7-----------10----8--10-------------------------8--10----7-----7--8--
G|--------10----------------------------------------7--------7--------------------------------
D|--------------------------10----10-------------0--------10-------10-------------------------
A|--------------------------------------------------------------------------------------------
E|--------------------------------------------------------------------------------------------

                
E|-----------0--
B|-----7--------
G|--------------
D|--------------
A|--------------
E|--------------

Guitar Tabs for Buried Alive Intro






    Am                                              A        D                                
E|--0-----------------------------------------------0--------2--------------------------------
B|--1-----------------------------------------------2--------3--------------------------------
G|--2-----------------------------------------------2--------2--------------------------------
D|--2-----------------------------------------------2--------0--------------------------------
A|--0-----------------------------------------------0-----------------------------------------
E|--------------------------------------------------------------------------------------------

       Am             G                       Am                                     Em       
E|-----0--------------3-----------------------0--------------------------------------0--------
B|-----1--------------3-----------------------1--------------------------------------0--------
G|-----2--------------4-----------------------2--------------------------------------0--------
D|-----2--------------5-----------------------2--------------------------------------2--------
A|-----0--------------5-----------------------0--------------------------------------2--------
E|--------------------3--------------------------------------------------------------0--------

       A        D              Dm                         F                 E                    
E|-----0--------2--------------1--------------------------1-----------------0--------------------
B|-----2--------3--------------3--------------------------1-----------------0--------------------
G|-----2--------2--------------2--------------------------2-----------------1--------------------
D|-----2--------0--------------0--------------------------3-----------------2--------------------
A|-----0--------------------------------------------------3-----------------2--------------------
E|--------------------------------------------------------1-----------------0--------------------

          Am             Bm                C     Dm                      Am       G     D     
E|--------0--------------2-----------------0-----1-----------------------0--------3-----2-----
B|--------1--------------3-----------------1-----3-----------------------1--------3-----3-----
G|--------2--------------4-----------------0-----2-----------------------2--------4-----2-----
D|--------2--------------4-----------------2-----0-----------------------2--------5-----0-----
A|--------0--------------2-----------------3-----------------------------0--------5-----------
E|--------------------------------------------------------------------------------3-----------

                
E|--------------
B|--------------
G|--------------
D|--------------
A|--------------
E|--------------

tabs and chords, guitar tabs, music transcription, music technology, deep learning, music information retrieval, transcribe into tabs & chords, chordify, music renditions, songsterr, reverbnation, tabulature, bollywood chords, ultimate guitar, yousician, guitar lessons, acoustic guitar, electric guitar, guitar tuner, 911 tabs