Guitar Tabs for Bulleya

(/) Slide Up  (\) Slide Down  (h) Hammer On  (p) Pull Off  (b) Bend (r) Release (v) Vibrato (x) Muted

Tabs for Song : 
BPM : 200

Song lyrics here Song Title : Bulleya
Singer : Amit Mishra, Shilpa Rao
Movie : Ae Dil Hai Mushkil

E|-----13-12-13-12-13-12-1--3--1--2--10-8--10-8-----
B|--1--0--------------------11----10----------------
G -|------------------------------------------------
D|--------------------------------------------------
A|--------------------------------------------------
E|--------------------------------------------------
Meri rooh ka parinda phadphadaye

E -|--13-12-13-12-13-12-13-12-10-8-10-8--
B|--10--------------------------------------------11---1-0---
G -|---------------------------------------------------------
D|-----------------------------------------------------------
A|-----------------------------------------------------------
E|-----------------------------------------------------------
Lekin /--u--k--o--o--n -k--a -j--a--z--e--e--r--a mi--l -n--a paaye

E |-------8--------8--10----
B |-10-10----10----11-------
G |-------------------------
D|--------------------------
A|--------------------------
E|--------------------------
Ve ki karaan..

E |-8--------10-8--------
B |----11----------11-10-
G |----------------------
D|-----------------------
A|-----------------------
E|-----------------------
Ve ki karaan..

E -|--13-12-13-12-13-12-13-12-10-8-10-8---
B|--1-0------------------------------------------1-1---10----
G -|---------------------------------------------------------
D|-----------------------------------------------------------
A|-----------------------------------------------------------
E|-----------------------------------------------------------
Ik ba-a--r -k--o -t--a--j--a--l--l--i -t--o--h -di-k--ha d--e

E -|--13-12-13-12-13-12-13-12-10-8-10-8---
B|--1-0---------------------------------------------1--1-1---0-----------
G -|---------------------------------------------------------------------
D -|---------------------------------------------------------------------
A|-----------------------------------------------------------------------
E|-----------------------------------------------------------------------
Jhoot-h--i -/--a--h--i -m--a--g--a--r -t--a--/--a--ll--i t---o d--i--l--a de

|------8------8-10-
E|-----------------------
B |-10-10-10----11-------
G |----------------------
D |----------------------
A|-----------------------
E|-----------------------
Ve ki karaan..

E |-8--------10-8--------
B |----11----------11-10-
G |----------------------
D |----------------------
A|-----------------------
E|-----------------------
Ve ki karaan..

E |-10-10-10-10-10-12-13-12-10----
B |-------------------------------
G |-------------------------------
D|--------------------------------
A|--------------------------------
E|--------------------------------
Raanjhan de yaar Bulleya

E |-10-10-10-10-10-10-12-13-13----
B |-------------------------------
G |-------------------------------
D|--------------------------------
A|--------------------------------
E|--------------------------------
Sunle pukaar Bulleya

E |-15-15-12-12-10-12-10-10-8--
B |----------------------------
G |----------------------------
D|-----------------------------
A|-----------------------------
E|-----------------------------
Tu hi toh yaar Bulleya

E |-8--12-10-10----10-13-13-12----
B |-------------------------------
G |-------------------------------
D|--------------------------------
A|--------------------------------
E|--------------------------------
Murshid mera, Murshid mera

E |-10-10-10-10-10-12-13-12-10----
B |-------------------------------
G |-------------------------------
D|--------------------------------
A|--------------------------------
E|--------------------------------
Tera mukaam kamle

E |-10-10-10-10-10-10-12-13-13----
B |-------------------------------
G |-------------------------------
D|--------------------------------
A|--------------------------------
E|--------------------------------
Sarhad ke paar Bulleya

E |-15-15-12-12-10-12-10-10-8--
B |----------------------------
G |----------------------------
D|-----------------------------
A|-----------------------------
E|-----------------------------
Parvardigar Bulleya

E |-8--12-10-10----10-13-13-12----
B |-------------------------------
G |-------------------------------
D|--------------------------------
A|--------------------------------
E|--------------------------------
Haafiz tera, Murshid mera (x2)

E |----8--8--10-10-10-10-10-12-15-13-12-10-8--8--8--8--
B |-1--0-----------------------------------------------
G |----------------------------------------------------
D|-----------------------------------------------------
A|-----------------------------------------------------
E|-----------------------------------------------------
Main taan gul se lipti titli ki tarah muhajir hoon

E |-8--10-1--0--8-----------10-8--------8--8--------
B |----------11----11-11-11-------11-11----------10-
G |-------------------------------------------------
D|--------------------------------------------------
A|--------------------------------------------------
E|--------------------------------------------------
Ek pal ko thehroon, pal mein udd jaaun

E |----13-12-13-12-10-10-10-10-
B |-10-10----------------------
G |----------------------------
D|-----------------------------
A|-----------------------------
E|-----------------------------
Ve main tan hoon pagdandi

E |-10-12-15-13-12-10-8--8--8--
B |----------------------------
G |----------------------------
D|-----------------------------
A|-----------------------------
E|-----------------------------
labhdi ae jo raah jannat ki

E |-8--10-8-----------13-10-8--------8--8--
B |-------11-11-11-1--1--------11-1--0-----
G |----------------------------------------
D|-----------------------------------------
A|-----------------------------------------
E|-----------------------------------------
Tu mude jahan main saath mud jaaun

E -|--13-12-13-12-13-12-13-12-10-8-10-8-
B|--1-0---------------------------------------------1-1---1--0-----------------
G -|---------------------------------------------------------------------------
D|-----------------------------------------------------------------------------
A|-----------------------------------------------------------------------------
E|-----------------------------------------------------------------------------
Tere -k--a--a--rv-a--n -m--e--i--n -/--h--a--m--i--l -h--on--a c--h--a--h--u--n

E |----13-12-13-12-13-12-13----12----10-8--10-8--
B |-1--0--------------------1--1--1--0-----------
G |----------------------------------------------
D|-----------------------------------------------
A|-----------------------------------------------
E|-----------------------------------------------
Kamiya taraash ke main kaabil hona chahun

E |-------8--------8--10----
B |-10-10----10----11-------
G |-------------------------
D|--------------------------
A|--------------------------
E|--------------------------
Ve ki karaan..

E |-8--------10-8--------
B |----11----------11-10-
G |----------------------
D|-----------------------
A|-----------------------
E|-----------------------
Ve ki karaan..

E|--
B|--
G|--
D|--
A|--
E|--

Song lyrics here 
E|--
B|--
G|--
D|--
A|--
E|--

Use manual mode to free up cursor. Paste any tab in acousterr tab maker and we'll play it !!!
tabs and chords, guitar tabs, music transcription, music technology, deep learning, music information retrieval, transcribe into tabs & chords, chordify, music renditions, songsterr, reverbnation, tabulature, bollywood chords, ultimate guitar, yousician, guitar lessons, acoustic guitar, electric guitar, guitar tuner, 911 tabs