Guitar Tabs for Bujang Lapuk Men Ce Ce

(/) Slide Up  (\) Slide Down  (h) Hammer On  (p) Pull Off  (b) Bend (r) Release (v) Vibrato (x) Muted

Tabs for Song : 

Song lyrics here
E|--10----7--10-9-----5--9--7-----3--7--5-----2--5--3------3h2-----
B|--------------------------------------------------------------3--
G|-----------------------------------------------------------------
D|-----------------------------------------------------------------(x2)
A|-----------------------------------------------------------------
E|-----------------------------------------------------------------

Song lyrics here
E|--------------------------------------------------7--------------
B|-----7--8--10----10----7--8--10----10----7--8--10----10-8--7-----
G|--7-----------------7-----------------7-----------------------9--
D|-----------------------------------------------------------------
A|-----------------------------------------------------------------
E|-----------------------------------------------------------------

E|--------------------7--------------------------------------------
B|--------7--8-----8-----10-8--7-----------7-----------------------
G|--9--9-----------------------------9--7-----9-----9--7--6--7--9--
D|-----------------------------------------------------------------
A|-----------------------------------------------------------------
E|-----------------------------------------------------------------

E|--------------------------------------------------7--------------
B|-----7--8--10----10----7--8--10----10----7--8--10----10-8--7-----
G|--7-----------------7-----------------7-----------------------9--
D|-----------------------------------------------------------------
A|-----------------------------------------------------------------
E|-----------------------------------------------------------------

E|--------------------7-----------------------------------------
B|--------7--8--8--------10-8--7-----------7--------------------
G|--9--9-----------------------------9--7-----9-----9--7--6--9--
D|--------------------------------------------------------------
A|--------------------------------------------------------------
E|--------------------------------------------------------------

E|--------------------------------------------------------------------------
B|-----------------------------------------------------------5--------------
G|--7--7--6--4--6--7-----7--6--4--6--7-----7--6--4--6--7--------7--6--4-----
D|-----------------------------------------------------------------------7--
A|--------------------------------------------------------------------------
E|--------------------------------------------------------------------------

E|--------------------------------------------------------------------------
B|--------------------------------------------------------------------7--5--
G|--6--4--6--7-----7--6--4--6--7-----7--6--4--6--7-----7--6--4--6--7--------
D|--------------------------------------------------------------------------
A|--------------------------------------------------------------------------
E|--------------------------------------------------------------------------

E|--------------------------------------------------------------------
B|--------------------------------------------------------------------
G|---2\7-----4--7--6--------6--4--------4-----------------------------
D|-----------------------7-----------5-----7-----4--7--5-----5--4-----
A|-----------------------------------------------------------------5--
E|--------------------------------------------------------------------

E|-----------------------------
B|-----------------------------
G|-----------------------------
D|-----4--------------7--5--4--
A|--5-----7--5-----5-----------
E|-----------------------------





Paste any tab in acousterr's tab maker and we'll play it !!!
Now supports capo and sound effects for vibrato/pull-off/hammer/bends/mutes etc !!! Checkout help section
tabs and chords, guitar tabs, music transcription, music technology, deep learning, music information retrieval, transcribe into tabs & chords, chordify, music renditions, songsterr, reverbnation, tabulature, bollywood chords, ultimate guitar, yousician, guitar lessons, acoustic guitar, electric guitar, guitar tuner, 911 tabs