Guitar Tabs for Build My Life

(/) Slide Up  (\) Slide Down  (h) Hammer On  (p) Pull Off  (b) Bend (r) Release (v) Vibrato (x) Muted

Tabs for Song : 

Song lyrics here Intro + Verse 1 
E|--15-12-10----------------------------------10----10h12-12-15-------------------------10-
B|-----------12-8--------8------8h10-12-10-8-----12-------------------8--10-12-10----8-----
G|-----------------9--7-----7-----------------------------------9--7--------------9--------
D|-----------------------------------------------------------------------------------------
A|-----------------------------------------------------------------------------------------
E|-----------------------------------------------------------------------------------------
Chorus 1/2/3
E|--------------------------
B|--12----10----8--------12-
G|-----9--------------9-----2x
D|-----------10----9--------
A|--------------------------
E|--------------------------

Song lyrics here
E|--
B|--
G|--
D|--
A|--
E|--

Paste any tab in acousterr's tab maker and we'll play it !!!
Now supports capo and sound effects for vibrato/pull-off/hammer/bends/mutes etc !!! Checkout help section
tabs and chords, guitar tabs, music transcription, music technology, deep learning, music information retrieval, transcribe into tabs & chords, chordify, music renditions, songsterr, reverbnation, tabulature, bollywood chords, ultimate guitar, yousician, guitar lessons, acoustic guitar, electric guitar, guitar tuner, 911 tabs