Bass Tabs for Buddy Holly - That'll Be The Day

Buddy Holly - That'll Be The Day

Chorus
G|--------------------------------------------------
D|-----7-----7-----------------7-----7--------------
A|--5-----5--------7-----7--5-----5-----------------
E|--------------5-----5-----------------5--3--4--5--

Verse
G|--------------------------------------------------------------
D|-----7-----------7-----------7-----------------------6--9--6--
A|--5--------7--5--------7--5--------7-----6--9--6--7-----------
E|--------5-----------5-----------5-----7-----------------------
tabs and chords, guitar tabs, music transcription, music technology, deep learning, music information retrieval, transcribe into tabs & chords, chordify, music renditions, songsterr, reverbnation, tabulature, bollywood chords, ultimate guitar, yousician, guitar lessons, acoustic guitar, electric guitar, guitar tuner, 911 tabs