Guitar Tabs for Brown rang

Tabs for Song : Brown Rang


kudiya ni tere brown rang ne

E|--1-----1--1--0-----1-----1--3--0-----
B|--------------------------------------
G|--------------------------------------
D|--------------------------------------
A|--------------------------------------
E|--------------------------------------

munde pata te ni saare mere town de

E|--1--1--1--1--0--0--0--------------0-----------
B|-----------------------1-----3--3-----3--3-----
G|-----------------------------------------------
D|-----------------------------------------------
A|-----------------------------------------------
E|-----------------------------------------------


kudiya ni tere brown rang ne

E|--1-----1--1--0-----1-----1--3--0-----
B|--------------------------------------
G|--------------------------------------
D|--------------------------------------
A|--------------------------------------
E|--------------------------------------

munde pata te ni saare mere town de

E|--1--1--1--1--0--0--0--------------0-----------
B|-----------------------1-----3--3-----3--3-----
G|-----------------------------------------------
D|-----------------------------------------------
A|-----------------------------------------------
E|-----------------------------------------------

koi kaam utte jaave na roti paani khaave ni

E|-----------------------------------0--0--1--0--0--0-----
B|-----------3-----3--3--3--3-----1-----------------------
G|--2-----2-----------------------------------------------
D|--------------------------------------------------------
A|--------------------------------------------------------
E|--------------------------------------------------------

gori gori kudiya nu koi munh laave na

E|--1--1--1--3--0--0--0--------------0--------------------
B|-----------------------1-----3--3-----3-----3--3--3-----
G|--------------------------------------------------------
D|--------------------------------------------------------
A|--------------------------------------------------------
E|--------------------------------------------------------

koi kaam utte jaave na roti paani khaave ni

E|-----------------------------------0--0-----0--0--0-----
B|-----------3-----3--3--3--3-----1--------1--------------
G|--2-----2-----------------------------------------------
D|--------------------------------------------------------
A|--------------------------------------------------------
E|--------------------------------------------------------

gori gori kudiya nu koi munh laave na

E|--1--1--1--3--0--0--0--------------0--------------------
B|-----------------------1-----3--3-----3-----3--3--3-----
G|--------------------------------------------------------
D|--------------------------------------------------------
A|--------------------------------------------------------
E|--------------------------------------------------------

kudiya ni tere brown rang ne

E|--1-----1--1--0-----1-----1--3--0-----
B|--------------------------------------
G|--------------------------------------
D|--------------------------------------
A|--------------------------------------
E|--------------------------------------

munde pata te ni saare mere town de

E|--1--1--1--1--0--0--0--------------0-----------
B|-----------------------1-----3--3-----3--3-----
G|-----------------------------------------------
D|-----------------------------------------------
A|-----------------------------------------------
E|-----------------------------------------------
tabs and chords, guitar tabs, music contests, music covers, songsterr, reverbnation, renditions, tabulature, bollywood chords, ultimate guitar, yousician, guitar lessons, torrins, fender, gibson, acoustic guitar, electric guitar, youtube covers, gootar, guitar tuner, A-Z tabs, 911 tabs