Guitar Tabs for Broken (seether Ft.amy Lee)

(/) Slide Up  (\) Slide Down  (h) Hammer On  (p) Pull Off  (b) Bend (r) Release (v) Vibrato (x) Muted

Tabs for Song : Broken (Seether ft.Amy Lee)
       Tuning : A half step down
  Intro     
D|---2h3--------3-----3--------------3---------------2h3--------3-----3--------------3--------------
A|--------0-----------3-----------3-----3--------3--------0-----------3-----------3-----3--------3--
F|-----------0--------0--------0--------------0--------------0--------0--------0--------------0-----
C|---2h------------------------------------0---------2h------------------------------------0--------
G|--------------------3-----------------------------------------------3-----------------------------
D|--------------------------------------------------------------------------------------------------

D|---2h3--------3-----3--------------3---------------0h2---------3p2------0h2------------3p2--------
A|--------0-----------3-----------3-----3--------3--------3-----------3--------3-----3--------3-----
F|-----------0--------0--------0--------------0--------------2--------------------2--------------0--
C|---2h------------------------------------0---------0h---------------------------------------------
G|--------------------3-----------------------------------------------------------------------------
D|--------------------------------------------------------------------------------------------------
  Repeat for Verse
  Chorus
  Strumming DUDUCU  D UUDUDU X3   DUDUCU   D
D|--------------------------------------------
A|-----------1-----------------------1--------
F|---------------------------------------------
C|-----------2--------2--------------2-----2---
G|-----------3--------2--------------3-----2---
D|-----------3--------0--------------3-----0---
             C        Em             C    Em
 Solo
D|--------------------------------------------------------------------0-----------------0--------
A|-----------------------------------------------------------------------------0-----------0-----
F|-----------------------------------------------------------------------------------------------
C|-----------------------------------------------------------9-----------------------------------
G|-----------5--7------7/10----9-----9---9h10--9\7--7--------------------------------7--------7--
D|--0--5--7--------------------------------------------------------------------------------------

D|-----------------------------------------------------------------------------------------------
A|-----------------------------------------------------------------------------------------------
F|-----------------------------------------------------------7------7/9-----7-----2---2/4--4--4--
C|--------------------------------------------------7--------------------------------------------
G|-----------5--7------7/10----9-----9---9h10--9h10----------------------------------------------
D|--0--5--7--------------------------------------------------------------------------------------

Paste any tab in acousterr's tab maker and we'll play it !!!
Now supports capo and sound effects for vibrato/pull-off/hammer/bends/mutes etc !!! Checkout help section
tabs and chords, guitar tabs, music contests, music covers, songsterr, reverbnation, renditions, tabulature, bollywood chords, ultimate guitar, yousician, guitar lessons, torrins, fender, gibson, acoustic guitar, electric guitar, youtube covers, gootar, guitar tuner, A-Z tabs, 911 tabs