Broderskapets Ring - Dimmu Borgir - Guitar Tabs

Shagrath
    
                                                                                                                                                                                                                                                                                                                                                                                                                                                                                                                                                                                                                                                                                                                                                                                                                                                                                                                                                                                                                                                                                                                                                                                              
E|----------------------------------------|--------------------------------------|
B|----------------------------------------|--------------------------------------|
G|----------------------------------------|--------------------------------------|
D|--9--9--9--9--9--9--9--9--9--9--2--2--2-|2--2--2--2--2--2--2--5--5--5--5--5--5-|
A|--7--7--7--7--7--7--7--7--7--7--0--0--0-|0--0--0--0--0--0--0--3--3--3--3--3--3-|
E|----------------------------------------|--------------------------------------|

    
                                                                                                                                                                                                                                                                                                                                                                                                                                                                                                                                                                                                                                                                                                                                                                                                                                                                                                                                                                                                                                                                                                                                                                                              
E|-------------------------------------------|--------------------------------------|
B|-------------------------------------------|--------------------------------------|
G|-------------------------------------------|--------------------------------------|
D|--5--5--5--5--7--7--7--7--7--7--7--7--7--7-|9--9--9--9--9--9--9--9--9--9--2--2--2-|
A|--3--3--3--3--5--5--5--5--5--5--5--5--5--5-|7--7--7--7--7--7--7--7--7--7--0--0--0-|
E|-------------------------------------------|--------------------------------------|

    
                                                                                                                                                                                                                                                                                                                                                                                                                                                                                                                                                                                                                                                                                                                                                                                                                                                                                                                                                                                                                                                                                                                                                                                              
E|----------------------------------------|-----------------------------------------|
B|----------------------------------------|-----------------------------------------|
G|----------------------------------------|-----------------------------------------|
D|--2--2--2--2--2--2--2--5--5--5--5--5--5-|5--5--5--5--7--7--7--7--7--7--7--7--7--7-|
A|--0--0--0--0--0--0--0--3--3--3--3--3--3-|3--3--3--3--5--5--5--5--5--5--5--5--5--5-|
E|----------------------------------------|-----------------------------------------|

    
                                                                                                                                                                                                                                                                                                                                                                                                                                                                                                                                                                                                                                                                                                                                                                                                                                                                                                                                                                                                                                                                                                                                                                                              
E|-------------------------|-----------------------|
B|-------------------------|-----------------------|
G|-------------------------|-----------------------|
D|--9--9--9--9--10-9-------|-----------------------|
A|--------------------7--7-|7--7-----------------0-|
E|-------------------------|------8--7--8--8--7----|

    
                                                                                                                                                                                                                                                                                                                                                                                                                                                                                                                                                                                                                                                                                                                                                                                                                                                                                                                                                                                                                                                                                                                                                                                              
E|----------------------------|-----------------------|
B|----------------------------|-----------------------|
G|----------------------------|-----------------------|
D|--------0--0--0--7----------|9--9--9--9--10-9-------|
A|--------------------10-9--10|------------------7--7-|
E|--7--8----------------------|-----------------------|

    
                                                                                                                                                                                                                                                                                                                                                                                                                                                                                                                                                                                                                                                                                                                                                                                                                                                                                                                                                                                                                                                                                                                                                                                              
E|-------------------------|--------------------------|
B|-------------------------|--------------------------|
G|-------------------------|--------------------------|
D|-------------------------|------0--0--0--7----------|
A|--7--7-----------------0-|------------------10-9--10|
E|--------8--7--8--8--7----|7--8----------------------|

    
                                                                                                                                                                                                                                                                                                                                                                                                                                                                                                                                                                                                                                                                                                                                                                                                                                                                                                                                                                                                                                                                                                                                                                                              
E|-------------------------|-----------------------|
B|-------------------------|-----------------------|
G|-------------------------|-----------------------|
D|--9--9--9--9--10-9-------|-----------------------|
A|--------------------7--7-|7--7-----------------0-|
E|-------------------------|------8--7--8--8--7----|

    
                                                                                                                                                                                                                                                                                                                                                                                                                                                                                                                                                                                                                                                                                                                                                                                                                                                                                                                                                                                                                                                                                                                                                                                              
E|----------------------------|-----------------------|
B|----------------------------|-----------------------|
G|----------------------------|-----------------------|
D|--------0--0--0--7----------|9--9--9--9--10-9-------|
A|--------------------10-9--10|------------------7--7-|
E|--7--8----------------------|-----------------------|

    
                                                                                                                                                                                                                                                                                                                                                                                                                                                                                                                                                                                                                                                                                                                                                                                                                                                                                                                                                                                                                                                                                                                                                                                              
E|-------------------------|--------------------------|
B|-------------------------|--------------------------|
G|-------------------------|--------------------------|
D|-------------------------|------0--0--0--7----------|
A|--7--7-----------------0-|------------------10-9--10|
E|--------8--7--8--8--7----|7--8----------------------|

    
                                                                                                                                                                                                                                                                                                                                                                                                                                                                                                                                                                                                                                                                                                                                                                                                                                                                                                                                                                                                                                                                                                                                                                                              
E|-------------------------|-----------------------|
B|-------------------------|-----------------------|
G|-------------------------|-----------------------|
D|--2--2--2--2--2--2--5--5-|5--4--5---7/9--9--9--9-|
A|--0--0--0--0--0--0--3--3-|3--2--3---5/7--7--7--7-|
E|-------------------------|-----------------------|

    
                                                                                                                                                                                                                                                                                                                                                                                                                                                                                                                                                                                                                                                                                                                                                                                                                                                                                                                                                                                                                                                                                                                                                                                              
E|-------------------------|-----------------------|
B|-------------------------|-----------------------|
G|-------------------------|-----------------------|
D|--9--9--9--9--9--9--9--9-|2--2--2--2--2--2--5--5-|
A|--7--7--7--7--7--7--7--7-|0--0--0--0--0--0--3--3-|
E|-------------------------|-----------------------|

    
                                                                                                                                                                                                                                                                                                                                                                                                                                                                                                                                                                                                                                                                                                                                                                                                                                                                                                                                                                                                                                                                                                                                                                                              
E|-------------------------|-----------------------|
B|-------------------------|-----------------------|
G|-------------------------|-----------------------|
D|--5--4--5---7/9--9--9--9-|9--9--9--9--9--9--9--9-|
A|--3--2--3---5/7--7--7--7-|7--7--7--7--7--7--7--7-|
E|-------------------------|-----------------------|

    
                                                                                                                                                                                                                                                                                                                                                                                                                                                                                                                                                                                                                                                                                                                                                                                                                                                                                                                                                                                                                                                                                                                                                                                              
E|-------------------------|-----------------------|
B|-------------------------|-----------------------|
G|-------------------------|-----------------------|
D|--2--2--2--2--2--2--5--5-|5--4--5---7/9--9--9--9-|
A|--0--0--0--0--0--0--3--3-|3--2--3---5/7--7--7--7-|
E|-------------------------|-----------------------|

    
                                                                                                                                                                                                                                                                                                                                                                                                                                                                                                                                                                                                                                                                                                                                                                                                                                                                                                                                                                                                                                                                                                                                                                                              
E|-------------------------|-----------------------|
B|-------------------------|-----------------------|
G|-------------------------|-----------------------|
D|--9--9--9--9--9--9--9--9-|2--2--2--2--2--2--5--5-|
A|--7--7--7--7--7--7--7--7-|0--0--0--0--0--0--3--3-|
E|-------------------------|-----------------------|

    
                                                                                                                                                                                                                                                                                                                                                                                                                                                                                                                                                                                                                                                                                                                                                                                                                                                                                                                                                                                                                                                                                                                                                                                              
E|-------------------------|-----------------------|
B|-------------------------|-----------------------|
G|-------------------------|-----------------------|
D|--5--4--5---7/9--9--9--9-|9--9--9--9--9--9--9--9-|
A|--3--2--3---5/7--7--7--7-|7--7--7--7--7--7--7--7-|
E|-------------------------|-----------------------|

    
                                                                                                                                                                                                                                                                                                                                                                                                                                                                                                                                                                                                                                                                                                                                                                                                                                                                                                                                                                                                                                                                                                                                                                                              
E|----------------------------------------|--------------------------------------|
B|----------------------------------------|--------------------------------------|
G|----------------------------------------|--------------------------------------|
D|--9--9--9--9--9--9--9--9--9--9--2--2--2-|2--2--2--2--2--2--2--5--5--5--5--5--5-|
A|--7--7--7--7--7--7--7--7--7--7--0--0--0-|0--0--0--0--0--0--0--3--3--3--3--3--3-|
E|----------------------------------------|--------------------------------------|

    
                                                                                                                                                                                                                                                                                                                                                                                                                                                                                                                                                                                                                                                                                                                                                                                                                                                                                                                                                                                                                                                                                                                                                                                              
E|-------------------------------------------|--------------------------------------|
B|-------------------------------------------|--------------------------------------|
G|-------------------------------------------|--------------------------------------|
D|--5--5--5--5--7--7--7--7--7--7--7--7--7--7-|9--9--9--9--9--9--9--9--9--9--2--2--2-|
A|--3--3--3--3--5--5--5--5--5--5--5--5--5--5-|7--7--7--7--7--7--7--7--7--7--0--0--0-|
E|-------------------------------------------|--------------------------------------|

    
                                                                                                                                                                                                                                                                                                                                                                                                                                                                                                                                                                                                                                                                                                                                                                                                                                                                                                                                                                                                                                                                                                                                                                                              
E|----------------------------------------|-----------------------------------------|
B|----------------------------------------|-----------------------------------------|
G|----------------------------------------|-----------------------------------------|
D|--2--2--2--2--2--2--2--5--5--5--5--5--5-|5--5--5--5--7--7--7--7--7--7--7--7--7--7-|
A|--0--0--0--0--0--0--0--3--3--3--3--3--3-|3--3--3--3--5--5--5--5--5--5--5--5--5--5-|
E|----------------------------------------|-----------------------------------------|

    
                                                                                                                                                                                                                                                                                                                                                                                                                                                                                                                                                                                                                                                                                                                                                                                                                                                                                                                                                                                                                                                                                                                                                                                              
E|-------------------------|-----------------------|
B|-------------------------|-----------------------|
G|-------------------------|-----------------------|
D|--9--9--9--9--10-9-------|---9--10-10-12-12-10-9-|
A|--------------------7--7-|7----------------------|
E|-------------------------|-----------------------|

    
                                                                                                                                                                                                                                                                                                                                                                                                                                                                                                                                                                                                                                                                                                                                                                                                                                                                                                                                                                                                                                                                                                                                                                                              
E|----------------------------|-----------------------|
B|----------------------------|-----------------------|
G|----------------------------|-----------------------|
D|--10--9/12-12-12-14-12-10-12|9--9--9--9--10-9-------|
A|----------------------------|------------------7--7-|
E|----------------------------|-----------------------|

    
                                                                                                                                                                                                                                                                                                                                                                                                                                                                                                                                                                                                                                                                                                                                                                                                                                                                                                                                                                                                                                                                                                                                                                                              
E|-------------------------|--------------------------|
B|-------------------------|--------------------------|
G|-------------------------|--------------------------|
D|--------10-10-12-12-10-9-|10--9/12-12-12-14-12-10-12|
A|--7----------------------|--------------------------|
E|-------------------------|--------------------------|

    
                                                                                                                                                                                                                                                                                                                                                                                                                                                                                                                                                                                                                                                                                                                                                                                                                                                                                                                                                                                                                                                                                                                                                                                              
E|----------------------------------------|--------------------------------------|
B|----------------------------------------|--------------------------------------|
G|----------------------------------------|--------------------------------------|
D|--9--9--9--9--9--9--9--9--9--9--2--2--2-|2--2--2--2--2--2--2--5--5--5--5--5--5-|
A|-----7--7--7--7--7--7--7--7--7--0--0--0-|0--0--0--0--0--0--0--3--3--3--3--3--3-|
E|----------------------------------------|--------------------------------------|

    
                                                                                                                                                                                                                                                                                                                                                                                                                                                                                                                                                                                                                                                                                                                                                                                                                                                                                                                                                                                                                                                                                                                                                                                              
E|-------------------------------------------|--------------------------------------|
B|-------------------------------------------|--------------------------------------|
G|-------------------------------------------|--------------------------------------|
D|--5--5--5--5-------------------------------|9--9--9--9--9--9--9--9--9--9--2--2--2-|
A|--3--3--3--3--3--3--3--3--3--5--5--5--5--5-|7--7--7--7--7--7--7--7--7--7--0--0--0-|
E|--------------1--1--1--1--1--3--3--3--3--3-|--------------------------------------|

    
                                                                                                                                                                                                                                                                                                                                                                                                                                                                                                                                                                                                                                                                                                                                                                                                                                                                                                                                                                                                                                                                                                                                                                                              
E|----------------------------------------|-----------------------------------------|
B|----------------------------------------|-----------------------------------------|
G|----------------------------------------|-----------------------------------------|
D|--2--2--2--2--2--2--2--5--5--5--5--5--5-|5--5--5--5-------------------------------|
A|--0--0--0--0--0--0--0--3--3--3--3--3--3-|3--3--3--3--3--3--3--3--3--5--5--5--5--5-|
E|----------------------------------------|------------1--1--1--1--1--3--3--3--3--3-|

    
                                                                                                                                                                                                                                                                                                                                                                                                                                                                                                                                                                                                                                                                                                                                                                                                                                                                                                                                                                                                                                                                                                                                                                                              
E|-------------------------|-----------------------|
B|-------------------------|-----------------------|
G|--------0--2--0----------|0--2--0----------------|
D|--2--4-----------4--2--4-|---------4--5----------|
A|-------------------------|------------3----------|
E|-------------------------|-----------------------|

    
                                                                                                                                                                                                                                                                                                                                                                                                                                                                                                                                                                                                                                                                                                                                                                                                                                                                                                                                                                                                                                                                                                                                                                                              
E|-------------------------|-----------------------|
B|-------------------------|-----------------------|
G|-------------------------|------0--2--0----------|
D|-------------------------|2--4-----------4--2--4-|
A|--------3--------5-------|-----------------------|
E|--------1--------3-------|-----------------------|

    
                                                                                                                                                                                                                                                                                                                                                                                                                                                                                                                                                                                                                                                                                                                                                                                                                                                                                                                                                                                                                                                                                                                                                                                              
E|-------------------------|-----------------------|
B|-------------------------|-----------------------|
G|--0--2--0----------------|-----------------------|
D|-----------4--5----------|-----------------------|
A|--------------3----------|------3--------5-------|
E|-------------------------|------1--------3-------|

    
                                                                                                                                                                                                                                                                                                                                                                                                                                                                                                                                                                                                                                                                                                                                                                                                                                                                                                                                                                                                                                                                                                                                                                                              
E|-------------------------|-----------------------|
B|-------------------------|-----------------------|
G|-------------------------|-----------------------|
D|--2--2--2--2--2--2--5--5-|5--4--5---7/9--9--9--9-|
A|--0--0--0--0--0--0--3--3-|3--2--3---5/7--7--7--7-|
E|-------------------------|-----------------------|

    
                                                                                                                                                                                                                                                                                                                                                                                                                                                                                                                                                                                                                                                                                                                                                                                                                                                                                                                                                                                                                                                                                                                                                                                              
E|-------------------------|-----------------------|
B|-------------------------|-----------------------|
G|-------------------------|-----------------------|
D|--9--9--9--9--9--9--9--9-|2--2--2--2--2--2--5--5-|
A|--7--7--7--7--7--7--7--7-|0--0--0--0--0--0--3--3-|
E|-------------------------|-----------------------|

    
                                                                                                                                                                                                                                                                                                                                                                                                                                                                                                                                                                                                                                                                                                                                                                                                                                                                                                                                                                                                                                                                                                                                                                                              
E|-------------------------|-----------------------|
B|-------------------------|-----------------------|
G|-------------------------|-----------------------|
D|--5--4--5---7/9--9--9--9-|9--9--9--9--9--9--9--9-|
A|--3--2--3---5/7--7--7--7-|7--7--7--7--7--7--7--7-|
E|-------------------------|-----------------------|

About Stormblåst : Stormblåst is the second studio album by Norwegian black metal band Dimmu Borgir . It was released on 25 January 1996 through Cacophonous Records, re-released in 2001 by This album was Dimmu Borgir's last album sung entirely in the band's native language . This is also the first album where Tjodalv switched to drums as opposed to guitar . The last album to feature Brynjard Tristan on bass guitar . Its music is influenced by genres - melodic black metal.

tabs and chords, guitar tabs, music transcription, music technology, deep learning, music information retrieval, transcribe into tabs & chords, chordify, music renditions, songsterr, reverbnation, tabulature, bollywood chords, ultimate guitar, yousician, guitar lessons, acoustic guitar, electric guitar, guitar tuner, 911 tabs