Guitar Tabs for Bring Me To Life

How can you see...
E|-----------------------------------------------10----------------------------------
B|--12-10-12-13-12-10-12-8--5--7--8--10----12-10----13-12-10-12-8--5--7--8--10-8--7--
G|-----------------------------------------------------------------------------------
D|-----------------------------------------------------------------------------------
A|-----------------------------------------------------------------------------------
E|-----------------------------------------------------------------------------------

E|-----------------------------------------------------------------------------
B|--5--7--8--8--10-5--7--8--13-12-10-13-12-12-10-12-13-12-10-12-12-8--10-7--5--
G|-----------------------------------------------------------------------------
D|-----------------------------------------------------------------------------
A|-----------------------------------------------------------------------------
E|-----------------------------------------------------------------------------

Wake me up inside (1)...
E|-----------------------------------------------------------------
B|--12-12-12-10-10-12-12-12-10-10-13-12-10-8--13-12-10-12-8--7--5--
G|-----------------------------------------------------------------
D|-----------------------------------------------------------------
A|-----------------------------------------------------------------
E|-----------------------------------------------------------------

E|-----------------------------------------------------------------
B|--12-12-12-10-10-12-12-12-10-10-13-12-10-8--13-12-10-12-8--7--5--
G|-----------------------------------------------------------------
D|-----------------------------------------------------------------
A|-----------------------------------------------------------------
E|-----------------------------------------------------------------

Now that I know...
E|--------------------------------------------------------10-------------------------------
B|--12-10-12-13-12-10-12-8--5--7--8--10-8--7--13-12-12-10----13-12-10-12-12-10-8--10-7--5--
G|-----------------------------------------------------------------------------------------
D|-----------------------------------------------------------------------------------------
A|-----------------------------------------------------------------------------------------
E|-----------------------------------------------------------------------------------------

Wake me up inside (2)...
E|-----------------------------------------------------------------
B|--12-12-12-10-10-12-12-12-10-10-13-12-10-8--13-12-10-12-8--7--5--
G|-----------------------------------------------------------------
D|-----------------------------------------------------------------
A|-----------------------------------------------------------------
E|-----------------------------------------------------------------

E|-----------------------------------------------------------------------
B|--12-12-12-10-10-12-12-12-10-10-13-12-10-8--13-12-10-12-13-8--10-7--5--
G|-----------------------------------------------------------------------
D|-----------------------------------------------------------------------
A|-----------------------------------------------------------------------
E|-----------------------------------------------------------------------

E|--------------
B|--8--10-7--5--
G|--------------
D|--------------
A|--------------
E|--------------

E|--------------
B|--5--7--8--10-
G|--------------
D|--------------
A|--------------
E|--------------

Frozen inside...
E|--------------------------------------------------------------------------------------
B|--13-12-10-12-8--10-12-10-8--10-12-12----8--10-12----13-12-10-12-8--10-12-10-8--10-12-
G|--------------------------------------------------------------------------------------
D|--------------------------------------------------------------------------------------
A|--------------------------------------------------------------------------------------
E|--------------------------------------------------------------------------------------

Wake me up inside (3)...
E|-----------------------------------------------------------------
B|--12-12-12-10-10-12-12-12-10-10-13-12-10-8--13-12-10-12-8--7--5--
G|-----------------------------------------------------------------
D|-----------------------------------------------------------------
A|-----------------------------------------------------------------
E|-----------------------------------------------------------------

E|-----------------------------------------------------------------------
B|--12-12-12-10-10-12-12-12-10-10-13-12-10-8--13-12-10-12-13-8--10-7--5--
G|-----------------------------------------------------------------------
D|-----------------------------------------------------------------------
A|-----------------------------------------------------------------------
E|-----------------------------------------------------------------------

E|--------------------------------------------
B|--8--10-7--5-----7--8--10-7--10-8--10-13-12-
G|--------------------------------------------
D|--------------------------------------------
A|--------------------------------------------
E|--------------------------------------------

tabs and chords, guitar tabs, music transcription, music technology, deep learning, music information retrieval, transcribe into tabs & chords, chordify, music renditions, songsterr, reverbnation, tabulature, bollywood chords, ultimate guitar, yousician, guitar lessons, acoustic guitar, electric guitar, guitar tuner, 911 tabs