Guitar Tabs for Break Me Down

Hey Everyone - This is my first tab so hopefully it helps you guys out! 
Heres my cover: https://www.youtube.com/watch?v=Bo-qKywxVcA -- watch this for help on timing and strum patterns.

If you have questions subscribe to my channel and send me an email and i'll help out! 

If you wanna throw a couple bucks my way to support me my Venmo is @Adam-Fuerst

Rock on!!



C |---------------------------------------------------------------------------|
G |---------------------------------------------------------------------------|
D#|-14--19--14--17-12--14-----------------------------------------------------
A#|------------------------------------watch video for strum pattern----------|
F |-12--17--12--15-10--12-----------------------------------------------------
C |---------------------------------------------------------------------------|

C |---------------------------------------------------------------------------|
G |---------------------------------------------------------------------------|
D#|-14--19--14--15--14----------------------------------------------------------
A#|---------------------------------------------------------------------------|
F |-12--17--12--13--12--------------------------------------------------------|
C |---------------------------------------------------------------------------|


[Verse 1]

C |---------------------------------------------------------------------------|
G |---------------------------------------------------------------------------|
D#|------7--------------------------------------------------------------------|
A#|------5--------------------12-11-----------8-7----------------------x2-----|
F |0 000--0----3--7-8-----------------------------8---------------------------|
C |---------------------8 888----------5 555----------------------------------|

C |---------------------------------------------------------------------------|
G |---------------------------------------------------------------------------|
D#|---------------------------------------------------------------------------|
A#|----------------------------------------------7-7--------------------------|
F |-------------3-3--3333---------8-8--5-5---5-5-5-5--------------------------|
C |-0-0------------------------------------------------------------------------|

C |---------------------------------------------------------------------------|
G |---------------------------------------------------------------------------|
D#|---------------------------------------------------------------------------|
A#|-------------------------------------------------------------------------|
F |-------3-3----3-3--3333--------8-8--5-5----------------------------|
C |-------------------------------------------------------------------------|

[Chorus]

C |---------------------------------------------------------------------------|
G |---------------------------------------------------------------------------|
D#|---------------------------------------------------------------------------|
A#|---------------------------------------------------------------------------|
F |---------------------------------------------------------------------------|
C |------------5-5-5-5---10-10-10-10----7-7-7-7------------x2-----------------|
F |------------3-3-3-3----8--8--8--8----5-5-5-5-------------------------------|
C |-0-0-0-0-------------------------------------------------------------------|

C |---------------------------------------------------------------------------|
G |---------------------------------------------------------------------------|
D#|---------------------------------------------------------------------------|
A#|-------------------------------------------------------------------------|
F |-----Then you play the intro over the chorus for the second half--------|
C |-----------------------------------------------------------------------|


[Verse 2]

C |---------------------------------------------------------------------------|
G |------same as first--------------------------------------------------------|
D#|---------------------------------------------------------------------------|
A#|---------------------------------------------------------------------------|
F |---------------------------------------------------------------------------|
C |---------------------------------------------------------------------------|

C |---------------------------------------------------------------------------|
G |---------------------------------------------------------------------------|
D#|---------------------------------------------------------------------------|
A#|---------------------------------------------------------------------------|
F |---------------------------------------------------------------------------|
C |---------------------------------------------------------------------------|


[Chorus]

C |---------------------------------------------------------------------------|
G |---------------------------------------------------------------------------|
D#|---------------------------------------------------------------------------|
A#|---------------------------------------------------------------------------|
F |---------------------------------------------------------------------------|
C |---------------------------------------------------------------------------|

C |---------------------------------------------------------------------------|
G |---------------------------------------------------------------------------|
D#|---------------------------------------------------------------------------|
A#|---------------------------------------------------------------------------|
F |---------------------------------------------------------------------------|
C |---------------------------------------------------------------------------|


[Bridge]

C |-10-----12----13---15------------------------------------------------------|
G |-10-----10----10---10-------strum each for about a 6 count-----------------|
D#|---------------------------------------------------------------------------|
A#|---------------------------------------------------------------------------|
F |---------------------------------------------------------------------------|
C |---------------------------------------------------------------------------|

C |---------------------------------------------------------------------------|
G |---------------------------------------------------------------------------|
D#|---------------------------------------------------------------------------|
A#|--7-0---------------------7----7----7-----3-3-3----------------------------|
F |--5-0---------------------5-0--5-0--5-0---1-1-1-----------x2---------------|
C |0--------0 0 0 0pm all --0--0----0----0---------3-3------------------------|


[Outro]

C |---------------------------------------------------------------------------|
G |---------------------------------------------------------------------------|
D#|---------------------------------------------------------------------------|
A#|---------------------------------------------------------------------------|
F |-outro just repeats the breakdown------------------------------------------|
C |---------------------------------------------------------------------------|

C |---------------------------------------------------------------------------|
G |---------------------------------------------------------------------------|
D#|---------------------------------------------------------------------------|
A#|---------------------------------------------------------------------------|
F |---------------------------------------------------------------------------|
C |---------------------------------------------------------------------------|


************************************

| x   Dead note
| g   Grace note
| (n) Ghost note
| h   Hammer-on
| p   Pull-off
| r   Release
| >   Accented note
| t   Tapping
| b   Bend
| br  Bend release
| pb  Pre-bend
| pbr Pre-bend release
| /   Slide up
| \   Slide down
| ~   Vibrato
| s   Slap
| P   Pop
| PM  Palm mute
| TR  Trill
| N   Tremolo

************************************[Intro]



tabs and chords, guitar tabs, music transcription, music technology, deep learning, music information retrieval, transcribe into tabs & chords, chordify, music renditions, songsterr, reverbnation, tabulature, bollywood chords, ultimate guitar, yousician, guitar lessons, acoustic guitar, electric guitar, guitar tuner, 911 tabs