Brain Damage By Pink Floyd - Guitar Tabs

(/) Slide Up  (\) Slide Down  (h) Hammer On  (p) Pull Off  (b) Bend (r) Release (v) Vibrato (x) Muted

Tabs for Song : 
BPM : 200

[intro]
E|--2-----------2--------
B|--3-----3--------------
G|--2--------2-----------
D|--0--0-----------0-----
A|-----------------------
E|-----------------------
Repeat 7x

The lunatic is on the grass
E|--2-----------2--------2-----------2--------1-----------1--------1-----------1-----
B|--3-----3--------------3-----3--------------0-----0--------------0-----0-----------
G|--2--------2-----------2--------2-----------0--------0-----------0--------0--------
D|--0--0-----------0-----0--0-----------0--------0-----------0--------0-----------0--
A|-----------------------------------------------------------------------------------
E|-----------------------------------------------------------------------------------
repeat 

Remembering games and                         daisy chains and laughs
E|--2-----------2--------2-----------2--------4-----------4--------4-----------4-----
B|--3-----3--------------3-----3--------------5-----5--------------5-----5-----------
G|--2--------2-----------2--------2-----------4--------4-----------4--------4--------
D|--0--0-----------0-----0--0-----------0--------0-----------0--------0-----------0--
A|-----------------------------------------------------------------------------------
E|-----------------------------------------------------------------------------------

Got to keep the loonies on the path
E|--3-----------------------3--------------------2-----------2-----0-----------0--------------
B|--2-----------2-----2-----2-----------2--------3-----3--3--------------3-----------3--------
G|--2-----2--2-----2--------2-----2--------------2--------2-----------------------2--------2--
D|--2-----------------------2--------------------0--0-----------0-----0-----0-----------0-----
A|-----0-----------------------0-----0-----0--------------------------------------------------
E|--------------------------------------------------------------------------------------------

The lunatic is in the hall
E|--2-----------2--------2-----------2--------1-----------1--------1-----------1-----
B|--3-----3--------------3-----3--------------0-----0--------------0-----0-----------
G|--2--------2-----------2--------2-----------0--------0-----------0--------0--------
D|-----0-----------0--------0-----------0--------0-----------0--------0-----------0--
A|-----------------------------------------------------------------------------------
E|-----------------------------------------------------------------------------------

The lunatics are in my hall
E|--2-----------2--------2-----------2--------1-----------1--------1-----------1-----
B|--3-----3--------------3-----3--------------0-----0--------------0-----0-----------
G|--2--------2-----------2--------2-----------0--------0-----------0--------0--------
D|-----0-----------0--------0-----------0--------0-----------0--------0-----------0--
A|-----------------------------------------------------------------------------------
E|-----------------------------------------------------------------------------------

The paper holds their folded faces to the floor
E|--2-----------2--------2-----------2--------4-----------4--------4-----------4-----
B|--3-----3--------------3-----3--------------5-----5--------------5-----5-----------
G|--2--------2-----------2--------2-----------4--------4-----4-----4--------4--------
D|-----0-----------0--------0-----------0-----0--0-----------0-----0--0-----------0--
A|-----------------------------------------------------------------------------------
E|-----------------------------------------------------------------------------------

And every day the paperboy brings more
E|--3--------------------3--------------3--------2-----------2-----0-----------0-----------2--------2--0--
B|--2--------------------2--------------2--------3-----3-----------------3--------3--------1-----1--------
G|--2-----------2--------2-----2--------2--------2--------------------------2--------------2--2-----------
D|--2-----2-----2--------2-----2-----------------0--0-----0-----0-----0-----0--------------0--------------
A|-----0-----0-----0--------0-----0--------0-----------------------------------------0--------------------
E|--------------------------------------------------------------------------------------------------------

[Chorus]
And if the dam breaks open many years too soon
E|--------0-----0--------------------------------------------------------
B|--1--------0-----------------0--------------0--------------2-----------
G|--------------------------0--0--0--------------0-----------2--------2--
D|-----4-----------------------------------0--------------2--2--0--2-----
A|--------------------------------------2--------------0--0--------------
E|-----------------0--2--3-----------3--------------3--------------------

And if there is no room upon the hill
E|-----------------------------0--------------------------------------
B|-----------2-----------1--------3--1--3--------------------------0--
G|--------2-----2-----------0-----------------------0--0-----------0--
D|-----2--------------------------------------2-----2--2--2-----0-----
A|--0--------------0--3--------------------3-----3--3--3--3-----------
E|-----------------------------------------------------------3--------

And if your head explodes with dark forebodings too
E|-----------------------------------------------------------
B|--0--------0-----0-----------0-----------------0-----------
G|-----0-----0--0--0--------0-----0--------0--2-----0--0--2--
D|-----------0-----------0--------------2--------------------
A|--------------------------------------0--------------------
E|--------3-----------3--------------3-----------------------

I'll see you on the dark side of the moon
e|--------------------------------------------------0--0-------------------------------|
B|-----------2-----------------------1--------------1--1--------------------0----------|
G|-----2--------2--------------0-----------0--------0--0-----------------------0-------|
D|--------2-----------------------------------------2--2-------------------------------|
A|--0--------------------3-----------------------3-----3-----------------------------0-|
E|-----------------------------------------------------------------3-----3--------3----|

e|-------------------------------------------------------------|
B|--------3--------------3-----------------------2-----2-------|
G|-----2-----2-----0-----4-----------0--------2-----2-----0----|
D|--------------4--2-----------5-------------------------------|
A|--2--------------2-----------------------0-------------------|
E|-----------------0-------------------------------------------|

The lunatic is in my head
e|--2-----------2-----2--------------2-----1-----------1-----1-----------1-------|
B|--3-----3-----------3--------3-----------0-----0-----------0-----0-------------|
G|--2--------2--------2-----------2--------0--------0--------0--------0----------|
D|-----0-----------0--------0-----------0-----0-----------0-----0-----------0----|
A|-------------------------------------------------------------------------------|
E|-------------------------------------------------------------------------------|
Repeat

You raise the blade                           You make the change
E|--2--------------2--------2-----------2-----4--------------4-----4-----------4----|
B|--3--------3--------------3-----3-----------5--------5-----------5-----5----------|
G|--2-----------2-----------2--------2--------4-----------4--------4--------4-------|
D|--0-----0-----------0--------0-----------0--0-----0-----------0--0--0-----------0-|
A|----------------------------------------------------------------------------------|
E|----------------------------------------------------------------------------------|

You rearrange me till I'm sane
e|--3--------------------3-----------------------2-----------2-----0--------0----------|
B|--2-----------2--------2-----------------2-----3-----3-----------3--3----------------|
G|--2-----2--2-----------2--------2-----2--------2--------2--------2-----------2--2----|
D|--2--------------------2-----------------------0--0-----------0--0-----0-----0--0----|
A|-----0--------------0--------0--------------0----------------------------------------|
E|-------------------------------------------------------------------------------------|

You lock the door                                   And throw away the key
e|--2-----------------------2-----2-----------2-----4--------------4-----4-----------4----|
B|--3-----------3-----------------3-----3-----------5--------5-----------5-----5----------|
G|--2-----------------2-----------2--------2--------4-----------4--------4--------4-------|
D|--0-----0--------------------0--0--0-----------0--0-----0--------------0--0-----------0-|
A|----------------------------------------------------------------------------------------|
E|----------------------------------------------------------------------------------------|

And there's someone in my head but it's not me
e|--3--3--------------3-----------------------2--------2-----------0--------0----------|
B|--2-----------2-----2--------------2--------3--------3-----3--------3--------3-------|
G|--2--------2--------2--------2--2-----------2--------2--------2--------2--------2----|
D|--2-----------------2-----------2-----------0--------0--------0----------------------|
A|--0-----0--------0--0-----0-----0-----0-----------------------0----------------------|
E|-------------------------------------------------------------------------------------|


e|--2-----2--0-----------2-------------------|
B|--1-----------1--------------1-------------|
G|--2--2--------------2----------------------|
D|--0----------------------------------------|
A|-------------------------------------------|
E|-----------------------------------0--2--3-|

[Chorus]
And if the cloud bursts, thunder in your ear
E|--------0-----0--------------------------------------0--------------------
B|--1--------0-----------------0--------------0--------2--------2-----------
G|--------------------------0--0--0--------------0-----2--------2--------2--
D|-----4-----------------------------------0-----------2-----2--2--0--2-----
A|--------------------------------------2--------------0--0--0--------------
E|-----------------0--2--3-----------3--------------3-----------------------

You shout and no one seems to hear
E|-----------------------------0--------------------------------------
B|-----------2-----------1--------3--1--3--------------------------0--
G|--------2-----2-----------0-----------------------0--0-----------0--
D|-----2--------------------------------------2-----2--2--2-----0-----
A|--0--------------0--3--------------------3-----3--3--3--3-----------
E|-----------------------------------------------------------3--------

And if the band you're in starts playing different tunes
E|-----------------------------------------------------------
B|--0--------0-----0-----------0-----------------0-----------
G|-----0-----0--0--0--------0-----0--------0--2-----0--0--2--
D|-----------0-----------0--------------2--------------------
A|--------------------------------------0--------------------
E|--------3-----------3--------------3-----------------------

I'll see you on the dark side of the moon
e|--------------------------------------------------0--0-------------------------------|
B|-----------2-----------------------1--------------1--1--------------------0----------|
G|-----2--------2--------------0-----------0--------0--0-----------------------0-------|
D|--------2-----------------------------------------2--2-------------------------------|
A|--0--------------------3-----------------------3-----3-----------------------------0-|
E|-----------------------------------------------------------------3-----3--------3----|

[outro]
E|--2-----------2--------2-----------2--------1-----------1--------1-----------1-----
B|--3-----3--------------3-----3--------------0-----0--------------0-----0-----------
G|--2--------2-----------2--------2-----------0--------0-----------0--------0--------
D|--0--0-----------0-----0--0-----------0--------0-----------0--------0-----------0--
A|-----------------------------------------------------------------------------------
E|-----------------------------------------------------------------------------------

Repeat 

E|--2-----------2--------2-----------2-----
B|--3-----3--------------3-----3-----------
G|--2--------2-----------2--------2--------
D|--0--0-----------0-----0--0-----------0--
A|-----------------------------------------
E|-----------------------------------------


e|--4-----------4--------4-----------4--------3-----------------3--------------
B|--5-----5--------------5-----5--------------2--------2--------2--------2-----
G|--4--------4-----------4--------4-----------2--2--2-----2-----2--2--2-----2--
D|--0--0-----------0-----0--0-----------0-----2-----------------2--------------
A|--------------------------------------------0-----------------0--------------
E|-----------------------------------------------------------------------------


E|--2-----------2--------------0-----------2-----------2--------2-----------2-----
B|--3-----3--------------3--------3--------3-----3--------------3-----3-----------
G|--2--------2--------------2--------2-----2--------2-----------2--------2--------
D|--0--0-----------0-----------------------0--0-----------0-----0--0-----------0--
A|--------------------------------------------------------------------------------
E|--------------------------------------------------------------------------------





































About Brit Floyd : Damian Darlington formed the band after playing with The Australian Pink Floyd Show for 17 years . Their live shows attempt to emulate and recreate the sound and soundscape of Pink Floyd's live shows . Darlington saw the band live for the first time in 1987 during the A Momentary Lapse of Reason Tour . Since then, he has seen the band in different incarnations, after its split, and including its 2005 reunion . Their music is influenced by genres - progressive rock , psychedelic rock.

tabs and chords, guitar tabs, music transcription, music technology, deep learning, music information retrieval, transcribe into tabs & chords, chordify, music renditions, songsterr, reverbnation, tabulature, bollywood chords, ultimate guitar, yousician, guitar lessons, acoustic guitar, electric guitar, guitar tuner, 911 tabs