Bass Tabs for Boys 'round Here (blake Shelton)

(/) Slide Up  (\) Slide Down  (h) Hammer On  (p) Pull Off  (b) Bend (r) Release (v) Vibrato (x) Muted

5-String Bass Tabs for "Boys 'Round Here" by Blake Shelton. Std BEADG tuning.

Studio version has 16 bars of intro and 1st VERSE, with bass in at 1st CHORUS.

Alternate INTRO - wait 4 bars,
join for 4 bars:                  VERSE:           "That's right"
G|---------------------------    |------------------------------
D|o-------------------------- x  |o----------------------------- x
A|---------5-----------5----- 2  |------------------5-----5--5-- 4
E|o--5-----------5-----------    |o--5-----5--5-----------------
B|---------------------------    |------------------------------

CHORUS:
G|---------------------------------    -----------------------------------
D|--------------------------------- x  -----------------------------------
A|--------------------------------- 5  ------------------3h5-5-3h5-3--3\0-
E|-5----5--5----5\-----------------    -5---5--5---5----------------------
B|------------------3----3--3----3-    ---------------3-------------------

VERSE 2:  "You don't know the doogie?"
G|--------------------------------               ---
D|-------------------------------- x      with a pickup of:
A|-------------------------------- 4             ---
E|---5\0--------------------------               -----0/5--
B|--------------------------------               ---

Repeat CHORUS with more a bit more riffing and slides

VERSE 3:    "Oooooo, let's ride..."
G|-----------------------------------------
D|-----------------------------------------     12 bars of rest
A|-----------------------------------------     starting with
E|---5r--\0-----------------3---5r--\0-----     "Hey now girl..."
B|-----------------------------------------

Repeat CHORUS x2 with even more riffing and slides

END NOTE:
G|-----
D|-----
A|-----
E|--5--
B|-----



G|--
D|--
A|--
E|--
B|--

Use manual mode to free up cursor. Paste any tab in acousterr tab maker and we'll play it !!!
tabs and chords, guitar tabs, music transcription, music technology, deep learning, music information retrieval, transcribe into tabs & chords, chordify, music renditions, songsterr, reverbnation, tabulature, bollywood chords, ultimate guitar, yousician, guitar lessons, acoustic guitar, electric guitar, guitar tuner, 911 tabs