Guitar Tabs for E Maj Scales

e maj scales:

1)


E|-----------------------------------------------14-16-17-
B|--------------------------------------14-16-17----------
G|-----------------------------13-14-16-------------------
D|--------------------13-14-16----------------------------
A|-----------12-14-16-------------------------------------
E|--12-14-16----------------------------------------------

2)

E|-----------------------------------------------16-17-19-
B|--------------------------------------16-17-19----------
G|-----------------------------14-16-18-------------------
D|--------------------14-16-18----------------------------
A|-----------14-16-18-------------------------------------
E|--14-16-17----------------------------------------------

3)

E|-----------------------------------------------5--7--9--
B|--------------------------------------5--7--9-----------
G|-----------------------------4--6--8--------------------
D|--------------------4--6--7-----------------------------
A|-----------4--6--7--------------------------------------
E|--4--5--7-----------------------------------------------

4)

E|-----------------------------------------------7--9--11-
B|--------------------------------------7--9--10----------
G|-----------------------------6--8--9--------------------
D|--------------------6--7--9-----------------------------
A|-----------6--7--9--------------------------------------
E|--5--7--9-----------------------------------------------

5)

E|-----------------------------------------------9--11-12-
B|--------------------------------------9--10-12----------
G|-----------------------------8--9--11-------------------
D|--------------------7--9--11----------------------------
A|-----------7--9--11-------------------------------------
E|--7--9--11----------------------------------------------

6)

E|-----------------------------------------------11-12-14-
B|--------------------------------------10-12-14----------
G|-----------------------------9--11-13-------------------
D|--------------------9--11-13----------------------------
A|-----------9--11-12-------------------------------------
E|--9--11-12----------------------------------------------

7)

E|-----------------------------------------------12-14-16-
B|--------------------------------------12-14-16----------
G|-----------------------------11-13-14-------------------
D|--------------------11-13-14----------------------------
A|-----------11-12-14-------------------------------------
E|--11-12-14----------------------------------------------
tabs and chords, guitar tabs, music transcription, music technology, deep learning, music information retrieval, transcribe into tabs & chords, chordify, music renditions, songsterr, reverbnation, tabulature, bollywood chords, ultimate guitar, yousician, guitar lessons, acoustic guitar, electric guitar, guitar tuner, 911 tabs