Boy With Luv - Guitar Tabs

(/) Slide Up  (\) Slide Down  (h) Hammer On  (p) Pull Off  (b) Bend (r) Release (v) Vibrato (x) Muted

Tabs for Song : 
BPM : 200

Song lyrics here 
E|--------------------------------------------------------------------------------------------------------
B|--0-----3--3--5--5--7--8--7-----0--3--3--5--5--2--0--2-----5--5--7--2--3--0--3--3--5--5--7--8--7--------
G|--------------------------------------------------------------------------------------------------------
D|--------------------------------------------------------------------------------------------------------
A|--------------------------------------------------------------------------------------------------------
E|--------------------------------------------------------------------------------------------------------

E|--------------0---------------0-5--5--5--2--2--2--2--0--0-----------2--------2-----2--------2-----2--------
B|--0--3--3--5-----2--0--2-----------------------------------3-----0-----0--------0-----0--------0-----0-----
G|-----------------------------------------------------------------------------------------------------------
D|-----------------------------------------------------------------------------------------------------------
A|-----------------------------------------------------------------------------------------------------------
E|-----------------------------------------------------------------------------------------------------------

E|--0--5--5--5--2--2--2--2--0--0-----------------2--------2-----2-----2--------2-----------------2--------
B|-----------------------------------3--0-----0--------0-----0-----0--------0-----0-----0--0--3-----3-----
G|--------------------------------------------------------------------------------------------------------
D|--------------------------------------------------------------------------------------------------------
A|--------------------------------------------------------------------------------------------------------
E|--------------------------------------------------------------------------------------------------------

E|-----------2--------------2--------------2--0--------------------------------2-----------------2-----
B|--0--0--3--------0--0--3--------0--0--3-----------2--0--2-----0-----0--0--3-----3-----0--0--3--------
G|-----------------------------------------------------------------------------------------------------
D|-----------------------------------------------------------------------------------------------------
A|-----------------------------------------------------------------------------------------------------
E|-----------------------------------------------------------------------------------------------------

E|-----------2--------------2-----0-----5--5-----7--7-----7--7-----5--5-----2--2--
B|--0--0--3--------0--0--3--------------------------------------------------------
G|--------------------------------------------------------------------------------
D|--------------------------------------------------------------------------------
A|--------------------------------------------------------------------------------
E|--------------------------------------------------------------------------------

Song lyrics here 
E|--
B|--
G|--
D|--
A|--
E|--

Use manual mode to free up cursor. Paste any tab in acousterr tab maker and we'll play it !!!

About Boy with Luv : Song was released on April 12, 2019 by Big Hit Entertainment . The song's music video was the most viewed online music video in 24 hours at the time . The Japanese version of the song was released as a double A-side single alongside an original Japanese track titled "Lights" "Boy With Luv" has been described as a "funk pop" song about happiness and love . It serves as a parallel track to their earlier song "Boy in Luv", released in 2014 . It was released in 2019. The genre is k-pop funk pop nu-disco bubblegum pop electropop. The track was release in 2019. Boy with Luv has a significant contribution from artist(s) Halsey. The track has an affiliation to the band(s) - BTS.

About Halsey (singer) - Ashley Nicolette Frangipane was signed by Astralwerks in 2014 . Gaining attention from self-released music on social media platforms . She released her debut EP, Room 93, later that year . Halsey has earned one number-one album on the Billboard 200 with Hopeless Fountain Kingdom (2017) She has also earned two number-two albums with Badlands (2015) and Manic (2020) In total, she has sold over one million albums . Halsey is noted for her distinctive singing voice . Her awards and nominations include four Billboard Music Awards, one American Music Award, an MTV Video Music Award and two Grammy Award nominations . Outside of her career, she has been involved in suicide prevention awareness, sexual assault victim advocacy and Halsey (singer)'s music is influenced by genre(s) - pop electropop synth-pop alternative pop.

tabs and chords, guitar tabs, music transcription, music technology, deep learning, music information retrieval, transcribe into tabs & chords, chordify, music renditions, songsterr, reverbnation, tabulature, bollywood chords, ultimate guitar, yousician, guitar lessons, acoustic guitar, electric guitar, guitar tuner, 911 tabs