Guitar Tabs for Bourreé - 2nd Movement

(/) Slide Up  (\) Slide Down  (h) Hammer On  (p) Pull Off  (b) Bend (r) Release (v) Vibrato

Tabs for Song : 

Song lyrics here
E|--------------------------3-----0-----------------------------------------------------------------------------
B|--0-----3--------1--0--------3--------0--3--1-----0--------------0--1-----0-----------------------3-----0-----
G|-----0--------2--------------------------------------2--1-----2--------------2--2--------------------2--------
D|--------------0-----------------------------------0-----2-----------2-----------------------------0-----------
A|--------------------------2-----3-----------0-----------------0-----------------0--2--0-----------------------
E|--3-----2-----------3-----------------4-----------------------------------0--------------3--2-----------3-----

Song lyrics here
E|--3-----0-----------------5-----2--------0--------------------------------------------7--------------0--5-----
B|-----3--------0--3-----------5--------2-----3-----2--0-----------0--0--------------------7--9-----7-----------
G|--------------------5-----------------------------------3-----------------------------------------------------
D|--------------------------------0-----------------2-----4-----------------------------------------0-----------
A|--2-----3-----------0-----4-----------1-----2-----------------------2--1--2--4--6-----------7-----------4-----
E|--------------4-----------------------------------------------2-----------------------7-----------------------

Add more lines by placing cursor below and adding notes

E|--0--3--2-----0-----3-----------------5--0--2-----------------------------0-----------------------------------
B|-----------------3--------3--6--5-----------------2--5--4-----0--------------0--1-----3-----0-----1-----------
G|-----------------------------------------------------------------------------------------2-----------0--2-----
D|--------0--------------------------------------------------------------------------2--4--------1--2-----------
A|--0-----------3-----2-----------3-----2-----0-----------2--------3--2--0--------0--------------------------4--
E|--------------------------3-----------------------2-----------------------4-----------------3-----------2-----

E|-----------------------------------------------
B|--0--------------------------------------------
G|-----------------------------------------------
D|-----4--5-----4--2--1-----2--4--5-----4--2--2--
A|--6-----------0-----2-----0-----2--------------
E|--------0-----------------------------------0--
tabs and chords, guitar tabs, music transcription, music technology, deep learning, music information retrieval, transcribe into tabs & chords, chordify, music renditions, songsterr, reverbnation, tabulature, bollywood chords, ultimate guitar, yousician, guitar lessons, acoustic guitar, electric guitar, guitar tuner, 911 tabs