Ukulele Tabs for Born Under A Bad Sign

(/) Slide Up  (\) Slide Down  (h) Hammer On  (p) Pull Off  (b) Bend (r) Release (v) Vibrato (x) Muted

Tabs for Song : 
BPM : 184

Song lyrics here 
A|--------3-----------2-----------0-----------2-------------3-----------2-----------0-----------2---
E|-----3-----3-----3-----3-----1-----1-----3-----3-------3-----3-----3-----3-----1-----1-----3-----3
C|--4-----------4-----------2-----------2-----------4-----------4-----------2-----------2-----------
G|--------------------------------------------------------------------------------------------------

Song lyrics here 

Use manual mode to free up cursor. Paste any tab in acousterr tab maker and we'll play it !!!

Ukulele Tabs for Born Under A Bad Sign





     
A|--3-----------2-----------0-----------2--
E|--0-----------3-----------1-----------3--
C|--0-----------4-----------2-----------2--
G|--0-----------0-----------2-----------0--

A|--
E|--
C|--
G|--


A|--
E|--
C|--
G|--

Guitar Tabs for Born Under A Bad Sign






E|--------3-----------2-----------0-----------2------------3-----------2-----------0-----------2---
E|-----0-----0-----3-----3-----1-----1-----3-----3------0-----3-----3-----3-----1-----1-----3-----3
C|--0-----------4-----------2-----------2-----------0-----------4-----------2-----------2-----------
G|--------------------------------------------------------------------------------------------------
B|--
G|--
D|--
A|--
E|--
tabs and chords, guitar tabs, music transcription, music technology, deep learning, music information retrieval, transcribe into tabs & chords, chordify, music renditions, songsterr, reverbnation, tabulature, bollywood chords, ultimate guitar, yousician, guitar lessons, acoustic guitar, electric guitar, guitar tuner, 911 tabs