Bass Tabs for Boom

(/) Slide Up  (\) Slide Down  (h) Hammer On  (p) Pull Off  (b) Bend (r) Release (v) Vibrato (x) Muted

Tabs for Song : Boom!

Intro
G|--------------------7-----------------------7-----
D|--9--------9--------------9--------9--------------
A|--------------------------------------------------
E|--------------------------------------------------

Verse
G|--------------------------------------------------------------------------------------------------
D|--------------------------------------------------------------------------------------------------
A|--------------------------------------------------------------------------------------------------
E|--7--7-----7--7-----5--7--------------------------7--7-----7--7-----5--7--------------------------

G|--------------------------------------------------------------------------------------------------
D|--------------------------------------------------------------------------------------------------
A|--7--7-----7--7-----5--7--------------------------------------------------------------------------
E|--------------------------------------------------2--2-----2--2-----0--2--------------------------

Chorus
G|--------------------------------------------------------------------------------------------------
D|--9-----------------------------------------------7-----------------------------------------------
A|--------------------9-----------------------------------------------9-----------------------------
E|--------------------------------------------------------------------------------------------------

G|--------------------------------------------------------------------------------------------------
D|--------------------9-----------------------------7-----------------------------------------------
A|--7-----------------------------------------------------------------7-----------------7-----9-----
E|--------------------------------------------------------------------------------------------------

G|--------------------------------------------------------------------------------------------------
D|--9-----------------------------------------------7-----------------------------------------------
A|--------------------9-----------------------------------------------9-----------------------------
E|--------------------------------------------------------------------------------------------------

G|--------------------------------------------------------------------------------------------------
D|--------------------------9-----------------------11----------------------------------------------
A|--7-----------------------------------------------------------------------9-----------------------
E|--------------------------------------------------------------------------------------------------


Chorus Breakdown
G|--------------------------------------------------------------------------------------------------
D|--------------------------------------------------------------------------------------------------
A|--------------------------------------------------------------------------------------------------
E|--------------------------------------------------------------------------------------------------

G|--------------------------------------------------------------------------------------------------
D|--------------------9--9--9--9--------------------7-----------------------------------------------
A|--7--7--7--7--------------------------------------------------------7-----------------7-----9-----
E|--------------------------------------------------------------------------------------------------

G|--------------------------------------------------------------------------------------------------
D|--9-----------------------------------------------7-----------------------------------------------
A|--------------------9-----------------------------------------------9-----------------------------
E|--------------------------------------------------------------------------------------------------

G|--------------------------------------------------------------------------------------------------
D|--------------------9-----------------------------11----------------------------------------------
A|--7-----------------------------------------------------------------9-----------------------------
E|--------------------------------------------------------------------------------------------------

Chorus Alt
G|--------------------------------------------------------------------------------------------------
D|--------------------------------------------------9-----------------9-----------------------------
A|--10----------------10----------------------------------------------------------------------------
E|--------------------------------------------------------------------------------------------------

G|--------------------------------------------------------------------------------------------------
D|--------------------9-----------------------------7-----------------------------------------------
A|--7-----------------------------------------------------------------7-----------------7-----9-----
E|--------------------------------------------------------------------------------------------------

G|--------------------------------------------------------------------------------------------------
D|--9-----------------------------------------------7-----------------------------------------------
A|--------------------9-----------------------------------------------9-----------------------------
E|--------------------------------------------------------------------------------------------------

G|--------------------------------------------------------------------------------------------------
D|--------------------------9-----------------------11----------------------------------------------
A|--7-----------------------------------------------------------------------9-----------------------
E|--------------------------------------------------------------------------------------------------

Bridge
G|--------------------------------------------------------------------------------------------------
D|--------------------------------------------------------------------------------------------------
A|--------------------------------------------------2-----------------------------------------------
E|--3-----------------------------------------------------------------------------------------------

G|--------------------------------------------------------------------------------------------------
D|--------------------------------------------------------------------------------------------------
A|--0-----------------------------------------------------------------------------------------------
E|--------------------------------------------------0-----------------------------------------------

Outro
G|--------------------------------------------------
D|--------------------------------------------------
A|--------------------------------------------------
E|--7--5--7--5--7--5--7--5--7--5--7--7--------------


Intro (until vocals start, then 4x)
Verse (2x)
Chorus
Intro (2x)
Verse (2x)
Chorus
Bridge (5x) (growing in intensity)
Chorus Breakdown
Chorus Alt
Outro (4x)


Paste any tab in acousterr's tab maker and we'll play it !!!
Now supports capo and sound effects for vibrato/pull-off/hammer/bends/mutes etc !!! Checkout help section
tabs and chords, guitar tabs, music transcription, music technology, deep learning, music information retrieval, transcribe into tabs & chords, chordify, music renditions, songsterr, reverbnation, tabulature, bollywood chords, ultimate guitar, yousician, guitar lessons, acoustic guitar, electric guitar, guitar tuner, 911 tabs