Guitar Tabs for Bol Do Naa Zara

Tabs for Song : Bol do na zara

intro para 1

E|-----------------------------------------
B|--2--2--2--3--0--------2--2--2--3--0-----
G|-----------------------------------------
D|-----------------------------------------
A|-----------------------------------------
E|-----------------------------------------

intro para 2

E|--------------0--------0--2--5-----0-----
B|--2--2--2--3--------------------3--------
G|-----------------------------------------
D|-----------------------------------------
A|-----------------------------------------
E|-----------------------------------------
itni mohabbat karo na

E|--------------------------------------------
B|--0--0-----0--0-----0---2--0--0---0---------
G|-----------------2--------------------------
D|--------------------------------------------
A|--------------------------------------------
E|--------------------------------------------
mein doob na jau kahi

E|-----0--0--0--------0--------------------
B|--------------3--3-----3--2--0--2--------
G|--0--------------------------------------
D|-----------------------------------------
A|-----------------------------------------
E|-----------------------------------------
wapas kinare per aana 

E|-----------------------------------------
B|--0--0-----0--0-----0--2--0--0--0--------
G|-----------------2-----------------------
D|-----------------------------------------
A|-----------------------------------------
E|-----------------------------------------
mein bhool na jau kahi

E|-----0--0--0--------0--------------------
B|--------------3--3-----3--2--0--2--------
G|--2--------------------------------------
D|-----------------------------------------
A|-----------------------------------------
E|-----------------------------------------

dekha jabse chehra tera

E|--------0--2--2--0-----------------------
B|--2--3-----------------3--2--3--0--------
G|-----------------------------------------
D|-----------------------------------------
A|-----------------------------------------
E|-----------------------------------------
mein to hafto se soya nhi

E|----------------------------------------------
B|--0--2--3--3--2---0--0-------0-2--------------
G|--------------------------2-------------------
D|----------------------------------------------
A|----------------------------------------------
E|-----------------------------------------------
bol do na zra

E|--------------------------------
B|--0--2--0--0-----0--2--3--------
G|--------------------------------
D|--------------4-----------------
A|--------------------------------
E|--------------------------------
dil mein jo hai chipa

E|-----------------------------
B|--2--0--0-----0--2--3--------
G|-----------------------------
D|-----------4-----------------
A|-----------------------------
E|-----------------------------
mein kisi se kahunga nahi

E|-----0-----------------------------------
B|--3-----3--2--------0--2--2--3--0--------
G|--------------2--------------------------
D|-----------------------------------------
A|-----------------------------------------
E|-----------------------------------------
tabs and chords, guitar tabs, music contests, music covers, songsterr, reverbnation, renditions, tabulature, bollywood chords, ultimate guitar, yousician, guitar lessons, torrins, fender, gibson, acoustic guitar, electric guitar, youtube covers, gootar, guitar tuner, A-Z tabs, 911 tabs