Guitar Tabs for Bluestone Alley - Bass

(/) Slide Up  (\) Slide Down  (h) Hammer On  (p) Pull Off  (b) Bend (r) Release (v) Vibrato (x) Muted

Tabs for Song : bluestone alley

Song lyrics here

Song lyrics here
E|-----0--3--0--7--------10----7--5--7--5--------
B|--3--------------------------------------------
G|-----------------------------------------------
D|-----------------------------------------------
A|-----------------------------------------------
E|-----------------------------------------------
Paste any tab in acousterr's tab maker and we'll play it !!!
E|--------0--3--0--5--------3--5--3--0--7--5--------
B|--3-----------------------------------------------
G|--------------------------------------------------
D|--------------------------------------------------
A|--------------------------------------------------
E|--------------------------------------------------

E|--------0--3--0--7--------------0--3--0--5--------
B|--3-----------------------3-----------------------
G|--------------------------------------------------
D|--------------------------------------------------
A|--------------------------------------------------
E|--------------------------------------------------

E|--------0--3--0--5-----3--7-----5-----3--5-----3--7-----5-----3--3--------
B|--3-----------------------------------------------------------------------
G|--------------------------------------------------------------------------
D|--------------------------------------------------------------------------
A|--------------------------------------------------------------------------
E|--------------------------------------------------------------------------

E|-----------------------------------------------------------------------
B|--1-----3-----0-----------3--0-----------------------------------------
G|-----------2--------------------2--0--2-----2--0--2-----2--0--2--------
D|-----------------------0-----------------------------------------------
A|-----------------------------------------------------------------------
E|-----------------------------------------------------------------------

E|--------------------------------------------------
B|-----3--0-----------------------------0-----------
G|-----------2--0--2-----2--0--2--0--2--------0-----
D|--0-----------------------------------------------
A|--------------------------------------------------
E|--------------------------------------------------

E|--------------------------------------------------
B|-----3--0-----------------------------------------
G|-----------2--0--2-----2--0--2-----0-----0--------
D|--0-----------------------------------2-----------
A|--------------------------------------------------
E|--------------------------------------------------

E|-----------------------------------------------------------------------------------------------
B|--------0--------------------0--0-----------------3--0-----------------------------------------
G|-----2-----2--0--2--------------------2-----------------2--0--2-----2--0--2-----2--0--2--------
D|--0--------------------------------------------0-----------------------------------------------
A|-----------------------------------------------------------------------------------------------
E|-----------------------------------------------------------------------------------------------

E|--------------------------------------------------
B|-----3--0--------------------0--------------------
G|-----------2--0--2-----2--0--------2--2-----0-----
D|--0-----------------------------------------------
A|--------------------------------------------------
E|--------------------------------------------------

E|--------------------------------------------------
B|-----3--0--------------------3--0-----------------
G|-----------2--0--------------------2--0-----------
D|--0--------------------10-0--------------------12-
A|--------------------10----------------------12----
E|-----------------8-----------------------10-------

E|--------------------------------------------------
B|-----0--------0-----------------------------------
G|--------2--2-----0--------------------------------
D|--0--------------------------------0--------------
A|--------------------------3--------------2--------
E|--------------------------------------5-----------

E|--------0--3--0--7--------10----7--5--7--5--------
B|--3--3--------------------------------------------
G|--------------------------------------------------
D|--------------------------------------------------
A|--------------------------------------------------
E|--------------------------------------------------

E|--------0--3--0--5--------3--5--3--0--7--5--------
B|--3-----------------------------------------------
G|--------------------------------------------------
D|--------------------------------------------------
A|--------------------------------------------------
E|--------------------------------------------------

E|--------0--3--0--7--------------0--3--0--5--------
B|--3-----------------------3-----------------------
G|--------------------------------------------------
D|--------------------------------------------------
A|--------------------------------------------------
E|--------------------------------------------------

E|--------0--3--0--5--------7-----5-----3--5--------
B|--3-----------------------------------------------
G|--------------------------------------------------
D|--------------------------------------------------
A|--------------------------------------------------
E|--------------------------------------------------

E|--------0--3--0--7--------10----7--5--7--5--------
B|--3--3--------------------------------------------
G|--------------------------------------------------
D|--------------------------------------------------
A|--------------------------------------------------
E|--------------------------------------------------

E|--------0--3--0--5--------3--5--3--0--7--5--------
B|--3-----------------------------------------------
G|--------------------------------------------------
D|--------------------------------------------------
A|--------------------------------------------------
E|--------------------------------------------------

E|--------0--3--0--7--------------0--3--0--5--------
B|--3-----------------------3-----------------------
G|--------------------------------------------------
D|--------------------------------------------------
A|--------------------------------------------------
E|--------------------------------------------------

E|--------0--3--0--5--------7-----5-----3--5--------7-----5-----3--3--------
B|--3-----------------------------------------------------------------------
G|--------------------------------------------------------------------------
D|--------------------------------------------------------------------------
A|--------------------------------------------------------------------------
E|--------------------------------------------------------------------------

E|--------------------	
B|--1--------3-----0--
G|--------------2-----
D|--------------------
A|--------------------
E|------------------------

Now supports capo and sound effects for vibrato/pull-off/hammer/bends/mutes etc !!! Checkout help section

Guitar Tabs for Bluestone Alley - Bass







E|-----------------------------------------------
B|--------------------8-----------------------5--
G|-----------------7-----------------------4-----
D|--------------5-----------------------2--------
A|-----------------------------------------------
C|-----------------------------------------------

E|--------------------------------------------------
B|-----------------------6-----------------------3--
G|--------------------5-----------------------2-----
D|-----------------3-----------------------0--------
A|--------------------------------------------------
C|--------------------------------------------------

E|--------------------------------------------------
B|-----------------------8-----------------------5--
G|--------------------7-----------------------4-----
D|-----------------5-----------------------2--------
A|--------------------------------------------------
C|--------------------------------------------------

E|--------------------------------------------------------------------------
B|-----------------------6-----------------------3-----------------------8--
G|--------------------5-----------------------2-----------------------7-----
D|-----------------3-----------------------0-----------------------5--------
A|--------------------------------------------------------------------------
C|--------------------------------------------------------------------------

E|-----------------------------------------------------------------------
B|-----------------------------------------------------------------------
G|-----------------------------------------------------------------------
D|--------------------------------------------5-----------5-----------5--
A|-----------------------------------------5-----------5-----------5-----
C|--------------------------------------7-----------7-----------7--------

E|--------------------------------------
B|--------------------------------------
G|--------------------------------------
D|-----------------------2-----------2--
A|--------------------2-----------2-----
C|-----------------4-----------4--------

E|--------------------------------------------------
B|--------------------------------------------------
G|-----------------------5-----------5-----------5--
D|--------------------5-----------5-----------5-----
A|--------------------------------------------------
C|-----------------0-----------0-----------0--------

E|-----------------------------------------------------------------------------------------------
B|-----------------------------------------------------------------------------------------------
G|-----------------------------------------------------------------------------------------------
D|--------------------------------------------------------------------5-----------5-----------5--
A|-----------------------5-----------------------------------------5-----------5-----------5-----
C|-----------------2--9-----------------------------------------7-----------7-----------7--------

E|--------------------------------------------------
B|--------------------------------------------------
G|--------------------------------------------------
D|-----------------------2--------------------------
A|--------------------2-----------------------------
C|-----------------2--------------------------------

E|--------------------------------------------------
B|--------------------------------------------------
G|-----------------------5--------------------------
D|--------------------5-----------------------------
A|--------------------------------------------5-----
C|-----------------0--------------------2--9--------

E|--------------------------------------------------
B|--------------------------------------------------
G|--------------------------------------------------
D|-----------------------5--------------------------
A|--------------------5-----------------------------
C|-----------------7--------------------------------

E|--------------------------------------------------
B|-----------------------8-----------------------5--
G|--------------------7-----------------------4-----
D|-----------------5-----------------------2--------
A|--------------------------------------------------
C|--------------------------------------------------

E|--------------------------------------------------
B|--------------------------------------------------
G|-----------------------5-----------------------7--
D|--------------------5-----------------------7-----
A|-----------------3-----------------------5--------
C|--------------------------------------------------

E|--------------------------------------------------
B|-----------------------8-----------------------5--
G|--------------------7-----------------------4-----
D|-----------------5-----------------------2--------
A|--------------------------------------------------
C|--------------------------------------------------

E|--------------------------------------------------
B|--------------------------------------------------
G|-----------------------5-----------------------5--
D|--------------------5-----------------------5-----
A|-----------------3-----------------------3--------
C|--------------------------------------------------

E|--------------------------------------------------
B|-----------------------8-----------------------5--
G|--------------------7-----------------------4-----
D|-----------------5-----------------------2--------
A|--------------------------------------------------
C|--------------------------------------------------

E|--------------------------------------------------
B|--------------------------------------------------
G|-----------------------5-----------------------7--
D|--------------------5-----------------------7-----
A|-----------------3-----------------------5--------
C|--------------------------------------------------

E|--------------------------------------------------
B|-----------------------8-----------------------5--
G|--------------------7-----------------------4-----
D|-----------------5-----------------------2--------
A|--------------------------------------------------
C|--------------------------------------------------

E|--------------------------------------------------------------------------
B|--------------------------------------------------------------------------
G|-----------------------5-----------------------7--------------------------
D|--------------------5-----------------------7-----------------------------
A|-----------------3-----------------------5--------------------------------
C|--------------------------------------------------------------------------

E|--------------------
B|--------------------
G|--------------------
D|--------------------
A|--------------------
C|--------------------

tabs and chords, guitar tabs, music transcription, music technology, deep learning, music information retrieval, transcribe into tabs & chords, chordify, music renditions, songsterr, reverbnation, tabulature, bollywood chords, ultimate guitar, yousician, guitar lessons, acoustic guitar, electric guitar, guitar tuner, 911 tabs