Guitar Tabs for Blues Solo In A

(/) Slide Up  (\) Slide Down  (h) Hammer On  (p) Pull Off  (b) Bend (r) Release (v) Vibrato (x) Muted

Tabs for Song : 

Song lyrics here
E|--------------------------------------5-----------5------8h10--------8h10-------------------------------
B|-----------------------------------------8--5------------------8h10-------10p8--5-----------------8--10-
G|--------5---------7p5------7p5------------------------------------------------------------7h-8h9--------
D|---5h7-----------------7--------------------------------------------------------------------------------
A|--------------------------------------------------------------------------------------------------------
E|--------------------------------------------------------------------------------------------------------

E|--------------------------------------------------------------------5-----------------------------5--------
B|---------------------------------------------------------------8b9---------------------------8b9-----------
G|---9p-8p7--5---------------------------------------------------------------------7h-8h9--------------------
D|-----------------------------------------------------------------------------------------------------------
A|---------------------7p-6p5--------------------------------------------------------------------------------
E|-----------------------------8--------5------3/5-----------------------------------------------------------

E|-----------------------5--5--------5--5--------5--5--------5--5--------------------
B|--5---------------8b9---------8b9---------8b9---------8b9--------------------------
G|-----7------------------------------------------------------------7p5-----7-----5--
D|-----------------------------------------------------------------------7-----------
A|-----------------------------------------------------------------------------------
E|-----------------------------------------------------------------------------------



Song lyrics here
E|--
B|--
G|--
D|--
A|--
E|--

Paste any tab in acousterr's tab maker and we'll play it !!!
Now supports capo and sound effects for vibrato/pull-off/hammer/bends/mutes etc !!! Checkout help section
tabs and chords, guitar tabs, music transcription, music technology, deep learning, music information retrieval, transcribe into tabs & chords, chordify, music renditions, songsterr, reverbnation, tabulature, bollywood chords, ultimate guitar, yousician, guitar lessons, acoustic guitar, electric guitar, guitar tuner, 911 tabs