Guitar Tabs for Blues For Me

(/) Slide Up  (\) Slide Down  (h) Hammer On  (p) Pull Off  (b) Bend (r) Release (v) Vibrato (x) Muted

Tabs & Chords
BPM : 98.0
Check Track 2 for Chord Positions 

                E              G     A                    E                                   
E|-----0--------------12-12-------------------------------0--------0--------------------------
B|-----------12-15-------------14----14----12-------------------------------0-----------------
G|--------13-------------------------------------12-12-13-------------------------------12-12-
D|--12-------------------------------------------------------------------------12----12-------
A|-----------------------------------------------------------15----------13-------------------
E|--------------------------------------------------------------------------------------------

    A                                         E                                               A  
E|-----------0-----------------------0--------------0-----0--------------0-----------------------
B|-----------------------------------------13-12-------------------------------------0-----------
G|--14----12----------------0-----------14-------13----------14-14-15-12-------------------------
D|-----------------12----------------------------------------------------------13-12----12-------
A|--------------16----12-------16-------------------------------------------------------------12-
E|-----------------------16----------------------------------------------------------------------

       B                                   A                       E              A     C     
E|-----------------------------------------------------------------0--0-----0-----0-----0-----
B|-----------12----12-------0-----------------------------------------------------------------
G|-----14-15----------14-------------------------14-14----------0-----------------------------
D|--13-------------------------13-------------------------12----------------------------------
A|-----------------------12-------12-------0-----------------16----------------16-------------
E|-----------------------------------14----------------------------------------------------0--

       
E|-----
B|--14-
G|-----
D|-----
A|-----
E|-----

Guitar Tabs for Blues For Me






                E              G     A                    E                                   
E|--------------0--------------3-----0--------------------0-----------------------------------
B|--------------0--------------3-----2--------------------0-----------------------------------
G|--------------1--------------4-----2--------------------1-----------------------------------
D|--------------2--------------5-----2--------------------2-----------------------------------
A|--------------2--------------5-----0--------------------2-----------------------------------
E|--------------0--------------3--------------------------0-----------------------------------

    A                                         E                                               A  
E|--0-----------------------------------------0-----------------------------------------------0--
B|--2-----------------------------------------0-----------------------------------------------2--
G|--2-----------------------------------------1-----------------------------------------------2--
D|--2-----------------------------------------2-----------------------------------------------2--
A|--0-----------------------------------------2-----------------------------------------------0--
E|--------------------------------------------0--------------------------------------------------

       B                                   A                       E              A     C     
E|-----2-----------------------------------0-----------------------0--------------0-----0-----
B|-----4-----------------------------------2-----------------------0--------------2-----1-----
G|-----4-----------------------------------2-----------------------1--------------2-----0-----
D|-----4-----------------------------------2-----------------------2--------------2-----2-----
A|-----2-----------------------------------0-----------------------2--------------0-----3-----
E|-----------------------------------------------------------------0--------------------------

       
E|-----
B|-----
G|-----
D|-----
A|-----
E|-----

tabs and chords, guitar tabs, music transcription, music technology, deep learning, music information retrieval, transcribe into tabs & chords, chordify, music renditions, songsterr, reverbnation, tabulature, bollywood chords, ultimate guitar, yousician, guitar lessons, acoustic guitar, electric guitar, guitar tuner, 911 tabs