Guitar Tabs for Blues Clues

Repete 3X
E|--------------------------------------------------------
B|--------------------------------------------------------
G|--------------------------------------------------------
D|--------------------------------------------------------
A|--------------------7--5--------------------------------
E|--5--------5--8-----------8--5--------------------------


Repete 3X (Glissando 4X na casa 7 da corda Sol)
E|-----------------------------------------
B|-----------------------------------------
G|-----------------------5--7--------------
D|--5--7-----------5--7--------7-----5-----
A|--------------------------------------7--
E|-----------------------------------------



Repete 3X (Glissando 6X na casa 14 corda Sol) (antes do bend)
E|--------------------------------------
B|--12-15----12-------------------------
G|--------------14----12----------------
D|-----------------------14----12-14-14b
A|--------------------------------------
E|--------------------------------------


Repete até acabar a track no final (Glisando 6X casa 14 corda Sol) (antes do bend)
E|--------------12----------------------------------
B|--------12----------12-------------------------
G|--14b------------------14----12----------------
D|--------------------------------14----12-14-14b
A|-----------------------------------------------
E|-----------------------------------------------







tabs and chords, guitar tabs, music transcription, music technology, deep learning, music information retrieval, transcribe into tabs & chords, chordify, music renditions, songsterr, reverbnation, tabulature, bollywood chords, ultimate guitar, yousician, guitar lessons, acoustic guitar, electric guitar, guitar tuner, 911 tabs