Guitar Tabs for Blue Skies

(/) Slide Up  (\) Slide Down  (h) Hammer On  (p) Pull Off  (b) Bend (r) Release (v) Vibrato (x) Muted

Tabs for Song : Blue Skies
BPM : 200

Song lyrics here 
E|--------------------------------------------------------------------------------------------------------------------------------------
B|--------------------------------------------------------------------------------------------------------------------------------------
G|-----------------------------------------2-----------2-----------2--------------------------2--0-----------------0--2-----3--3--------
D|--0-----------3-----------0-----------0-----3--0--------3-----------3--------------------3-----------------3--3--------3--------2--1--
A|--------2--3--------1--3-----1--0-----------------4--------4--3--------3--2--2--0-----3-----------4--3--3-----------------------------
E|-----3-----------------------------------------------------------------------------3--------------------------------------------------

E|--------------------------------------------------------------------------------------------------
B|--------------------------------------------------------------------------------------------------
G|-----2-----------2-----------2-----------------------------------5-----------0--2--------------5--
D|--0-----3--0--------3-----------3--------------------0--3--3--------------3--------3--1--1--------
A|--------------4--------4--3--------3--2--2--0-----3-----------3-----3--3--------------------3-----
E|-----------------------------------------------3--------------------------------------------------

E|-----------------------------------------------------------------------------------------------------
B|-----------------------------------------------------------------------------------------------------
G|-----------------------------------------------------------------------------------------------------
D|-----------------------------------------------------------------------------------------------------
A|--3--3-----3-----3-----3-----3-----3-----3-----3-----3-----3-----3-----3-----3-----3-----3--3--2--0--
E|-----------------------------------------------------------------------------------------------------

E|--------------------------------------------------------------------------------------------
B|--------------------------------------------------------------------------------------------
G|-----2-----------2-----------2-----------------------------------5-----------------0--1--2--
D|--0-----3--0--------3-----------3--------------------0--3--3--------------3-----3-----------
A|--------------4--------4--3--------3--2--2--0-----3-----------3-----3--3--------------------
E|-----------------------------------------------3--------------------------------------------

E|--------------------------------------------------------------------------------------------------
B|--------------------------------------------------------------------------------------------------
G|-----2-----------2-----------2--------------4--4--5--2-----------5-----------0--2--5-----0--1--2--
D|--0-----3--0--------3-----------3-----------------------3--3--------------3-----------3-----------
A|--------------4--------4--3--------3--2--2--------------------3-----3--3--------------------------
E|--------------------------------------------------------------------------------------------------

E|--------------------------------------------------------------------------------------------------
B|--------------------------------------------------------------------------------------------------
G|-----2-----------2-----------2--------------4--4--5--2-----------5-----------0--2--------------5--
D|--0-----3--0--------3-----------3-----------------------3--3--------------3--------3--1--1--------
A|--------------4--------4--3--------3--2--2--------------------3-----3--3--------------------3-----
E|--------------------------------------------------------------------------------------------------

E|--------------------------------------------------------------------------------------------------
B|--------------------------------------------------------------------------------------------------
G|-----0--2--2--3--------2--3--------2--3--3-----3-----0--2--2--3--------2--3--------0--5--5--3--2--
D|--3-----------------3-----------3-----------3-----3-----------------3-----------3-----------------
A|-----------------1-----------1-----------------------------------1-----------1--------------------
E|--------------------------------------------------------------------------------------------------

E|--------------------------------------------------------------------------------------------------
B|--------------------------------------------------------------------------------------------------
G|-----2-----------2-----------2--------------------------------0--0-----------0--2--3--5--3--2--2--
D|--0-----3--0--------3-----------3--------------------0--3--3--------------3-----------------------
A|--------------4--------4--3--------3--2--2--0-----3-----------------3--3--------------------------
E|-----------------------------------------------3--------------------------------------------------

E|-----------------------------------------------------------------------------------------------------
B|-----------------------------------------------------------------------------------------------------
G|-----------------------------------------------------------------------------------------------------
D|-----------------------------------------------------------------------------------------------------
A|--3--3-----3-----3-----3-----3-----3-----3-----3-----3-----3-----3-----3-----3-----3-----3--3--2--0--
E|-----------------------------------------------------------------------------------------------------

E|--------------------------------------------------------------------------------------------
B|--------------------------------------------------------------------------------------------
G|-----2-----------2-----------2-----------------------------------5-----------------0--1--2--
D|--0-----3--0--------3-----------3--------------------0--3--3--------------3-----3-----------
A|--------------4--------4--3--------3--2--2--0-----3-----------3-----3--3--------------------
E|-----------------------------------------------3--------------------------------------------

E|--------------------------------------------------------------------------------------------------
B|--------------------------------------------------------------------------------------------------
G|-----2-----------2-----------2--------------4--4--5--2-----------5-----------0--2--5-----0--1--2--
D|--0-----3--0--------3-----------3-----------------------3--3--------------3-----------3-----------
A|--------------4--------4--3--------3--2--2--------------------3-----3--3--------------------------
E|--------------------------------------------------------------------------------------------------

E|--------------------------------------------------------------------------------------------------
B|--------------------------------------------------------------------------------------------------
G|-----2-----------2-----------2--------------4--4--5--2-----------5-----------0--2--------------5--
D|--0-----3--0--------3-----------3-----------------------3--3--------------3--------3--1--1--------
A|--------------4--------4--3--------3--2--2--------------------3-----3--3--------------------3-----
E|--------------------------------------------------------------------------------------------------

E|--------------------------------------------------------------------------------------------------
B|--------------------------------------------------------------------------------------------------
G|-----0--2--2--3--------2--3--------2--3--3-----3-----0--2--2--3--------2--3--------0--5--5--3--2--
D|--3-----------------3-----------3-----------3-----3-----------------3-----------3-----------------
A|-----------------1-----------1-----------------------------------1-----------1--------------------
E|--------------------------------------------------------------------------------------------------

E|--------------------------------------------------------------------------------------------------
B|--------------------------------------------------------------------------------------------------
G|-----2-----------2-----------2--------------------------------0--0-----------0--2--3--5--3--2--2--
D|--0-----3--0--------3-----------3--------------------0--3--3--------------3-----------------------
A|--------------4--------4--3--------3--2--2--0-----3-----------------3--3--------------------------
E|-----------------------------------------------3--------------------------------------------------

E|-----------------------------------------------------------------------------
B|-----------------------------------------------------------------------------
G|-----------------5-----------------------7--------0--2--3--0-----------------
D|-----0--3--3--------------------2-----0-----0--4--------------------3--3-----
A|--3-----------3-----3--3--0--3-----0--------------------------3--------------
E|--------------------------------------------------------------------------1--

Use manual mode to free up cursor. Paste any tab in acousterr tab maker and we'll play it !!!
tabs and chords, guitar tabs, music transcription, music technology, deep learning, music information retrieval, transcribe into tabs & chords, chordify, music renditions, songsterr, reverbnation, tabulature, bollywood chords, ultimate guitar, yousician, guitar lessons, acoustic guitar, electric guitar, guitar tuner, 911 tabs