Guitar Tabs for Blue Grass Lick In G Ending

(/) Slide Up  (\) Slide Down  (h) Hammer On  (p) Pull Off  (b) Bend (r) Release (v) Vibrato (x) Muted

Tabs for Song : 

Song lyrics here
E|--------------------------------------------
B|-----------------------------1--------0-----
G|-----------------------0--------3--------0--
D|--------------0--2--0-----------------------
A|-----0--1--2--------------------------------
E|--1-----------------------------------------

E|--------------------------------------------------0-----3--
B|-----------------------------------------------3-----3-----
G|-----------0------3\2--0-----2-----0------3/4--------------
D|-----2--0-----------------2-----2--------------------------
A|-----------------------------------------------------------
E|-----------------------------------------------------------

Song lyrics here
E|--
B|--
G|--
D|--
A|--
E|--

Paste any tab in acousterr's tab maker and we'll play it !!!
Now supports capo and sound effects for vibrato/pull-off/hammer/bends/mutes etc !!! Checkout help section
tabs and chords, guitar tabs, music transcription, music technology, deep learning, music information retrieval, transcribe into tabs & chords, chordify, music renditions, songsterr, reverbnation, tabulature, bollywood chords, ultimate guitar, yousician, guitar lessons, acoustic guitar, electric guitar, guitar tuner, 911 tabs