Guitar Tabs for Blue Bird

Tabs for Song : 

E|-----------2--4--5-----4--2-----------2--4--5-----7--5--7--9--------2--4--5-----4-----2-----2--9--7-----2--9--7--
B|--------2--------------------------2-----------------------------2-----------------------------------------------
G|-----------------------------------------------------------------------------------------------------------------
D|-----------------------------------------------------------------------------------------------------------------
A|-----------------------------------------------------------------------------------------------------------------
E|-----------------------------------------------------------------------------------------------------------------

E|--0--0--2--2--------9-----9--9--7-----7-----7-----5--4--5-----5-----4--0--2--0-----2--------1-----2--4--5-----5--4--
B|--------------------------------------------------------------------------------2--------------2-----------2--------
G|--------------------------------------------------------------------------------------------------------------------
D|--------------------------------------------------------------------------------------------------------------------
A|--------------------------------------------------------------------------------------------------------------------
E|--------------------------------------------------------------------------------------------------------------------

E|-----2--0--2-----------------------------0--2--0-----0--0--0--2--4--5--4--------2--4--5-----5--4-----2--0--2--
B|--------------------0--2-----2--2--2--3--------------------------------------2-----------2--------------------
G|-----------------2--------------------------------------------------------------------------------------------
D|--------------------------------------------------------------------------------------------------------------
A|--------------------------------------------------------------------------------------------------------------
E|--------------------------------------------------------------------------------------------------------------

E|--------------------------------5-----4--2--0--0-----2--2--------2--4--5--------5--4--5--4--4--4--5-----7-----7--
B|--------0--2-----2--2--2-----3--------------------------------2--------------------------------------------------
G|-----2-----------------------------------------------------------------------------------------------------------
D|-----------------------------------------------------------------------------------------------------------------
A|-----------------------------------------------------------------------------------------------------------------
E|-----------------------------------------------------------------------------------------------------------------

E|--5--4--2-----2--5--7--9-----2--5--7--9--------9--12-10-9--------------0--4--7--10----9--9--9--9-----2--4--5--
B|--------------------------------------------------------------0--2--3-----------------------------2-----------
G|--------------------------------------------------------------------------------------------------------------
D|--------------------------------------------------------------------------------------------------------------
A|--------------------------------------------------------------------------------------------------------------
E|--------------------------------------------------------------------------------------------------------------

E|--4-----2-----------2--4--5-----7--5--7--9--------2--4--5-----4--2-----2--9--7-----2--9--7--0--0-----2--2--------2--
B|-----------------2-----------------------------2--------------------------------------------------------------2-----
G|--------------------------------------------------------------------------------------------------------------------
D|--------------------------------------------------------------------------------------------------------------------
A|--------------------------------------------------------------------------------------------------------------------
E|--------------------------------------------------------------------------------------------------------------------

E|--4--5-----4--2-----------2--4--5-----7--5--7--9--------2--4--5-----4--2-----2--9--7-----2--9--7--0--0-----2--2--
B|-----------------------2-----------------------------2-----------------------------------------------------------
G|-----------------------------------------------------------------------------------------------------------------
D|-----------------------------------------------------------------------------------------------------------------
A|-----------------------------------------------------------------------------------------------------------------
E|-----------------------------------------------------------------------------------------------------------------

E|--2--9--7-----2--9--7--0--0-----2--2-----2--9--7-----2--9--7--0--0-----2--2-----9-----9--9--7--7-----7--5--4--5--
B|-----------------------------------------------------------------------------------------------------------------
G|-----------------------------------------------------------------------------------------------------------------
D|-----------------------------------------------------------------------------------------------------------------
A|-----------------------------------------------------------------------------------------------------------------
E|-----------------------------------------------------------------------------------------------------------------

E|--5-----4--0--2--1-----2--------1-----4-----4--4--4--4--4--4--5--
B|--------------------2--------------------------------------------
G|-----------------------------------------------------------------
D|-----------------------------------------------------------------
A|-----------------------------------------------------------------
E|-----------------------------------------------------------------

Original: Tab Sheet Music
tabs and chords, guitar tabs, music transcription, music technology, deep learning, music information retrieval, transcribe into tabs & chords, chordify, music renditions, songsterr, reverbnation, tabulature, bollywood chords, ultimate guitar, yousician, guitar lessons, acoustic guitar, electric guitar, guitar tuner, 911 tabs