Bloody Tears - Guitar Tabs

(/) Slide Up  (\) Slide Down  (h) Hammer On  (p) Pull Off  (b) Bend (r) Release (v) Vibrato (x) Muted

Tabs for Song : 
BPM : 200

Capo: 3rd Fret

Song lyrics here 
E|--------0-----------------------------------------------------------------------------------------
B|--------------3-----1-----0-----1-----0-----------0-----1-----3-----1-----0-----------0-----------
G|--2-----------------------------------------2-----------------------------------0-----------2-----
D|-----2-----2-----2-----2-----2-----2-----2-----2-----2-----2-----2-----2-----2-----2-----2-----2--
A|--0-----------------------------------------------------------------------------------------------
E|--------------------------------------------------3-----------------------------------------------
 
E|--------0-----------------------------------------------------------------------------------------
B|--------------3-----1-----0-----1-----0-----------0-----1-----3-----1-----0-----------0-----------
G|--2-----------------------------------------2-----------------------------------0-----------2-----
D|-----2-----2-----2-----2-----2-----2-----2-----2-----2-----2-----2-----2-----2-----2-----2-----2--
A|--------------------------------------------------------------------------------------------------
E|--1-----------------------------------------------0-----------------------------------------------

E|---------3p0--------0-----------0--------------------3--------0--------------------------3--0-----
B|--3-----------------1-----------1--------3--1--3-----------1--1--------3-----1-----3--------------
G|--2-----------------2-----------2--------------0--------------0--------------------2--------------
D|--2-----------------2-----------2--------------0--------------0--------------------3--------------
A|--0-----------------0-----------0--------------0--------------0--------------------0--------------
E|-----------------------------------------------3--------------3-----------------------------------

E|--0--------------------------0--1-----3--------------------------
B|--1--------------------3--------3-----------------0-----3--------
G|--2-----------------------------2-----------------1--------------
D|--3-----------------------------0-----------------2--------------
A|--0-----------------------------------------------2--------------
E|-----------------------------------------------------------------

E|---------3p0--------0-----------0--------------------3--------0--------------------------3--0-----
B|--3-----------------1-----------1--------3--1--3-----------1--1--------3-----1-----3--------------
G|--2-----------------2-----------2--------------0--------------0--------------------2--------------
D|--2-----------------2-----------2--------------0--------------0--------------------3--------------
A|--0-----------------0-----------0--------------0--------------0--------------------0--------------
E|-----------------------------------------------3--------------3-----------------------------------

E|--0--------------------------0--1-----3--------------------
B|--1--------------------3--------3-----------------0-----3--
G|--2-----------------------------2-----------------1--------
D|--3-----------------------------0-----------------2--------
A|--0-----------------------------------------------2--------
E|-----------------------------------------------------------

About Ritual of Battle : Army of the Pharaohs released on September 25, 2007 . The album features Vinnie Paz, Jus Allah, OuterSpace, Chief Kamachi, Reef the Lost Cauze, Esoteric, Celph Titled, Des Devious, Doap Nixon, Demoz, and King Magnetic . The album's first single is "Bloody Tears", featuring Planetary, Doap Nixon, Demoz and V Ritual of Battle's most popular songs include Reef the Lost Cauze. It had a contribution from notable artists like Vinnie Paz,Jus Allah. Its music is influenced by genres - hip hop , horrorcore.

tabs and chords, guitar tabs, music transcription, music technology, deep learning, music information retrieval, transcribe into tabs & chords, chordify, music renditions, songsterr, reverbnation, tabulature, bollywood chords, ultimate guitar, yousician, guitar lessons, acoustic guitar, electric guitar, guitar tuner, 911 tabs