Guitar Tabs for Bloc Party -this Modern Love (acoustic)

(/) Slide Up  (\) Slide Down  (h) Hammer On  (p) Pull Off  (b) Bend (r) Release (v) Vibrato (x) Muted

Tabs for Song : 
BPM : 250

Song lyrics here
E|--------------------------------------------------------------------------------------------------
B|--------------------------------------------------------------------------------------------------
G|-----9-----9-----9-----9-----9-----9-----9-----9-----9-----9-----9-----9-----9-----9-----9-----9--
D|--------------------------------------------------------------------------------------------------
A|--------------------------------------------------7-----7-----7-----7-----8-----8-----8-----7-----
E|--8-----8-----8-----8-----8-----8-----7-----7-----------------------------------------------------

E|------------------------------------------------------------------------------------------
B|--------------------------------------------------------------------------------------------
G|-----9-----9-----9-----9-----9-----9-----9-----9-----9-----9-----9-----9--------------------
D|--------------------------------------------------------------------------------------------
A|--------------------------------------------------0-----0-----0-----0-----------------------
E|--8-----8-----8-----8-----8-----8-----7-----7-----------------------------------------------

E|----------------------------------------------------------------------------------------------------------------------------------------------------------------------------------------------------------------------------------------------------------------------------------------------------------------------------------------------------------------------------------------------------------
B|--------------------------------------------------------------------------------------------------------------------------------------------------------------------------------------------------------------------------------------------------------------------------------------------------------------------------------------------------------------------------------------------------
G|--------------------------------------------------------------------------------------------------------------------------------------------------------------------------------------------------------------------------------------------------------------------------------------------------------------------------------------------------------------------------------------------------
D|--------------------------------------------------------------------------------------------------------------------------------------------------------------------------------------------------------------------------------------------------------------------------------------------------------------------------------------------------------------------------------------------------
A|--------------------------------------------------------------------------------------------------------------------------------------------------------------------------------------------------------------------------------------------------------------------------------------------------------------------------------------------------------------------------------------------------
E|--------------------------------------------------------------------------------------------------------------------------------------------------------------------------------------------------------------------------------------------------------------------------------------------------------------------------------------------------------------------------------------------------

Song lyrics here


Paste any tab in acousterr's tab maker and we'll play it !!!
Now supports capo and sound effects for vibrato/pull-off/hammer/bends/mutes etc !!! Checkout help section
tabs and chords, guitar tabs, music transcription, music technology, deep learning, music information retrieval, transcribe into tabs & chords, chordify, music renditions, songsterr, reverbnation, tabulature, bollywood chords, ultimate guitar, yousician, guitar lessons, acoustic guitar, electric guitar, guitar tuner, 911 tabs