Bass Tabs for Blink-182 - What's My Age Again

Guitar Intro
(2x)
G|--------------------------------------------------------------------------------------------------
D|--------------------------------------------------------------------------------------------------
A|--2-----2-----2-----2-----------------------------4-----4-----4-----4-----6-----6-----6-----6-----
E|--------------------------2-----2-----2-----2-----------------------------------------------------

Verse 1
"I took her out..."
(3x)
G|--------------------------------------------------------------------------------------------------
D|--------------------------------------------------------------------------------------------------
A|--2-----2-----2-----2-----------------------------4-----4-----4-----4-----6-----6-----6-----6-----
E|--------------------------2-----2-----2-----2-----------------------------------------------------

G|--------------------------------------------------------------------------------------------------
D|--------------------------------------------------------------------------------------------------
A|--2-----2-----2-----2-----------------------------4-----4-----4-----4-----4-----4-----4-----4-----
E|--------------------------2-----2-----2-----2-----------------------------------------------------

G|--------------------------------------------------
D|--------------------------------------------------
A|--2-----2-----2-----2-----2-----2-----2-----2-----
E|--------------------------------------------------

Chorus
"... way from me..."
(3x)
G|--------------------------------------------------------------------------------------------------
D|--4-----------------------------------------------------------------------------------------------
A|--------------------4-----4-----------------6-----6--------------------2-----2--------------------
E|--------------------------------------------------------------------------------------------------

G|--------------------------------------------------------------------------------------------------
D|--4-----------------------------------------------------------------------------------------------
A|--------------------4-----4-----------------6-----6-----6-----6-----6-----6-----6-----6-----6-----
E|--------------------------------------------------------------------------------------------------

G|--------------------------------------------------------------------------------------------------
D|--------------------------------------------------------------------------------------------------
A|--4-----4-----4-----4-----4-----4-----4-----4-----2-----------------------------------------------
E|--------------------------------------------------------------------------------------------------

Verse 2
"Then later on..."
(3x)
G|--------------------------------------------------------------------------------------------------
D|--------------------------------------------------------------------------------------------------
A|--2-----2-----2-----2-----------------------------4-----4-----4-----4-----6-----6-----6-----6-----
E|--------------------------2-----2-----2-----2-----------------------------------------------------

G|--------------------------------------------------------------------------------------------------
D|--------------------------------------------------------------------------------------------------
A|--2-----2-----2-----2-----------------------------4-----4-----4-----4-----4-----4-----4-----4-----
E|--------------------------2-----2-----2-----2-----------------------------------------------------

G|--------------------------------------------------
D|--------------------------------------------------
A|--2-----2-----2-----2-----2-----2-----2-----2-----
E|--------------------------------------------------

Chorus 2
"...up on me..."
(3x)
G|--------------------------------------------------------------------------------------------------
D|--4-----------------------------------------------------------------------------------------4-----
A|--------------------4-----4-----------------6-----6-----------------2-----2-----------------------
E|--------------------------------------------------------------------------------------------------

G|--------------------------------------------------------------------------------------------------
D|--4-----------------------------------------------------------------------------------------------
A|--------------------4-----4-----------------6-----6-----6-----6-----6-----6-----6-----6-----6-----
E|--------------------------------------------------------------------------------------------------

G|--------------------------------------------------
D|--------------------------------------------------
A|--4-----4-----4-----4-----4-----4-----4-----4-----
E|--------------------------------------------------

Bridge 4x
G|--------------------------------------------------------------------------------------------------
D|--------------8-----------------8-----------8-----------------6-----------------6-----------6-----
A|--6-----------------------6-----------6-----------4-----------------------4-----------4-----------
E|--------------------------------------------------------------------------------------------------

G|--------------------------------------------------------------------------------------------------
D|--------------4-----------------4-----------4-----------------6-----------------6-----------6-----
A|--2-----------------------2-----------2-----------4-----------------------4-----------4-----------
E|--------------------------------------------------------------------------------------------------

Repeat Chorus 4x

End on:
G|--------------------------------------------------
D|--------------------------------------------------
A|--2-----------------------------------------------
E|--------------------------------------------------

Play the tab: https://www.acousterr.com/tab/blink182-whats-my-age-again
tabs and chords, guitar tabs, music transcription, music technology, deep learning, music information retrieval, transcribe into tabs & chords, chordify, music renditions, songsterr, reverbnation, tabulature, bollywood chords, ultimate guitar, yousician, guitar lessons, acoustic guitar, electric guitar, guitar tuner, 911 tabs