Guitar Tabs for Blazblue - Active Angel

(/) Slide Up  (\) Slide Down  (h) Hammer On  (p) Pull Off  (b) Bend (r) Release (v) Vibrato

*This is not the entire song tab, i am not a pro tab maker, but i am sure that this will help some people. I
 used a video from youtube of a cover to help me (https://www.youtube.com/watch?v=Xfe4CBLb08Y it's not me), so please, 
 anything that you can add would be great (Sorry for my english)*

Tabs for Song : 


E|--------------------------------------------------------------------------------------------------------------------
B|--8--8-----10----8-----6-----8--8--8-----10----13----8-----6--6--6-----8-----6-----5-----6--6-----8-----10----8--8--
G|--7--7-----9-----7-----5-----7--7--7-----9-----12----7-----5--5--5-----7-----5-----4-----5--5-----7-----9-----7--7--
D|--------------------------------------------------------------------------------------------------------------------
A|--5--5-----7-----5-----3-----5--5--5-----7-----10----5-----3--3--3-----5-----3-----2-----3--3-----5-----7-----5--5--
E|--------------------------------------------------------------------------------------------------------------------

E|--------------------------------------------------------------------------------------------------------------
B|--------------------------------------------------------------------------------------------------------------
G|--5-----------5--5--------------------------------------------------------------2-----------2--2--------------
D|--5-----------5--5-----------------------5-----------5--5-----------------------2-----------2--2--------------
A|--3-----3--3--3--3-----3-----3-----3--3--5-----------5--5-----------------------0-----0--0--0--0-----0-----0--
E|-----------------------------------------3-----3--3--3--3-----3-----3-----3--3--------------------------------

E|-----------------------------------------------------------------------------------------------------------------
B|-----------------------------------------------------------------------------------------------------------------
G|--------3-----------3-----------5-----------5-----------2-----2-----2--4-----4-----------------------------------
D|--------3-----------3-----------5-----------5-----------2-----2-----2--4-----4--5-----3-----5--5-----2-----3--5--
A|--0--0--1-----1--1--1-----1--1--3-----3--3--3-----3--3--0-----0-----0--2-----2--5-----3-----5--5-----2-----3--5--
E|--------------------------------------------------------------------------------3-----1-----3--3-----0-----1--3--

E|-----------------------------------------------------------------------------------------------------------
B|--------------------------------------------------5--5---8p5--5-----------------------------6--3-----------
G|-----------4-----5-----5--------2-----4--5-----------------------5-----5-----4-----3--4--4--------5-----4--
D|--5--2-----4-----5-----5-----------2--------5--0-----------------------5-----4-----3--------------5-----4--
A|--5--2-----2-----3-----3-----0--------------------------------------0--3-----2-----3--------------3-----2--
E|--3--0-----------------------------------------------------------------------------1-----------------------

E|-----------------------------------------------------------------------------------------------------------
B|--------------------------------------------------------------------------------3-----8--------------------
G|--5---7p5--4-----------4--5---7/9-----10p9--7-----5--4--------5--4--------4--------------------------------
D|---------------5/7-----------------------------------------5--------5--------------------------5--7--5-----
A|-----------------------------------------------------------------------------------------8--8-----------8--
E|-----------------------------------------------------------------------------------------------------------

E|-----------------------------------------------------------------------9--12----------------------------------
B|-----------------------------------------------------------9-----10----------10-9--10-12----12\10----10-9-----
G|--7-----5--4--7--5------------5h7--9-----5--7--------9-----------------------------------------------------10-
D|------------------------5h7-----------------------------------------------------------------------------------
A|--------------------------------------------------------------------------------------------------------------
E|--------------------------------------------------------------------------------------------------------------

E|--------------------------------------------------------10-9--------9--12----9--------9--10----9--------
B|-----------------------10-10\9---9\7--7-----------9--12-------10----------------12----------------9--10-
G|--6--------------------------------------------10-------------------------------------------------------
D|-----7-----9--10-11----------------------9--11----------------------------------------------------------
A|--------------------------------------------------------------------------------------------------------
E|--------------------------------------------------------------------------------------------------------

E|--------------------------------------------------------------------------------------
B|--------------------------------9-----10-9-----10-------------------------------------
G|--7--6--7--------7-----7--9--------9--------9--------------11----9--------2--3--4--5--
D|-----------7--------7--------------------------------------11----9-----5--2--3--4--5--
A|-----------------------------------------------------------9-----7-----5--0--1--2--3--
E|-----------------------------------------------------------------------3--------------


Add more lines by placing cursor below and adding notes
tabs and chords, guitar tabs, music transcription, music technology, deep learning, music information retrieval, transcribe into tabs & chords, chordify, music renditions, songsterr, reverbnation, tabulature, bollywood chords, ultimate guitar, yousician, guitar lessons, acoustic guitar, electric guitar, guitar tuner, 911 tabs