Guitar Tabs for Blackpink-ddu Du Ddu Du

(/) Slide Up  (\) Slide Down  (h) Hammer On  (p) Pull Off  (b) Bend (r) Release (v) Vibrato (x) Muted

Tabs for Song : 

Song lyrics here                                                         X                    X           X
E|--------------------------------------------------------------0--0--0--3---3\6--7--6--7--3--0--0--0--0--3---3\6--7--
B|--------------------------------------------------------------0--------0--------0-----------0--0--------0--------0--
G|-----------------4--3--4-----------------------4--3--4--------0--------0--------0-----------0--0--------0--------0--
D|--2--2--2--5--5-----------5--2--2--2--2--5--5-----------5--2--------------------------------------------------------
A|--------------------------------------------------------------------------------------------------------------------
E|--------------------------------------------------------------0--------0--------0-----------0--0--------0--------0--
          X   REPEAT X2
E|--7--3--0--------------------0--0-----------------------------------0--0--------------------------------------0--0--
B|--------0--------------------------0--0--0--0--------0--0--1--0--0--0-----0--0--------0--0--------0--0--1--0--0-----
G|--------0-----------------------------------------------------------0-----------0--0--------------------------0-----
D|-----------------------------------------------2--2-----------------------------------------2--2--------------------
A|--------------------------------------------------------------------------------------------------------------------
E|--------0-----------------0-----------------------------------------0-----------------------------------------0-----
                                                                                  RAP         X
E|--------------------------------------0--0--------------------------------------------------------------------------
B|--0--0--------0--0--------0--0--1--0--0-----0--0--------0--0--------0--0--1--0--------------------------------------
G|--------0--0--------------------------0-----------0--0-----------------------------4--4--4--4--4--4---4p0-----4--4--
D|--------------------2--2--------------------------------------2--2--------------------------2-----------------------
A|--------------------------------------------------------------------------------------------------------------------
E|--------------------------------------0-----------------------------------------0--------------------------0--------
       X                          X
E|--------------------------------------------------------------------------------------------------------------------
B|--------------------------------------------------------------------------------------------------------------------
G|--4--4--4--4---4p0-----4--4--4--4--4--4---4p0-----4--4--4--4--4--4---4p0--------4--4-----4--4--4-----4--4-----5--4--
D|-----2--------------------------2--------------------------2-----------------2--------2-----------2--------2--------
A|--------------------------------------------------------------------------------------------------------------------
E|--------------------0--------------------------0--------------------------0-----------------------------------------
                                           PRECHORUS
E|--------------------------------------------------------7--5--3--0---3\5--------3--5--7--7--7--5--5--7--8--8--8--8--
B|-----------------------------------------------------0--------------------------------0-----------------8-----------
G|-----4--4-----4--4--4-----4--4-----4--0-----------0--------------------------5--------0-----------------9-----------
D|--2--------2-----------2--------2--------------0--------------------------------------------------------------------
A|---------------------------------------------------------------------0\---0-----------------------------------------
E|--------------------------------------------3-----------------------------------------0-----------------8-----------

E|--7--7--------------7--5--3--0---3\5--------3--5--7--7--7--5--5--7--8--8--8--7--------------3--5--3--5--5--3--5--0--
B|-----------------0--------------------------------0-----------------8--8--8--------------0-----------5--------------
G|--------------0--------------------------5--------0-----------------9--9--9-----------0--------------5--------------
D|-----------0-----------------------------------------------------------------------0--------------------------------
A|---------------------------------0\---0--------------------------------------------------------------0--------------
E|--------3-----------------------------------------0-----------------8-----------3-----------------------------------

E|---0h3--5--5--3--5--0--3--5--5--5--3--5--3--------------3--5--3--5--5--3--5--7--7--12----10----7--5--5--3--3--3--3--
B|--------0--------------------------------------------0-----------5-----------------0-----0-----0--------1-----------
G|--------0-----------------0-----------------------0--------------5--------------------0-----0-----------0-----------
D|-----------------------------------------------0--------------------------------------------------------------------
A|--------------------------3--------------------------------------0--------------------------------------3-----------
E|--------0-----------------------------------3--------------------------------------0--------------------------------
                CHORUS   X                    X           X                    X  REPEAT X2
E|--3--3--2--2--0--0--0--3---3\6--7--6--7--3--0--0--0--0--3---3\6--7--6--7--3--0--
B|--1-----3-----0--------0--------0-----------0--0--------0--------0-----------0--
G|--0-----2-----0--------0--------0-----------0--0--------0--------0-----------0--
D|--------0-----------------------------------------------------------------------
A|--3-----------------------------------------------------------------------------
E|--------------0-----------------0--------------0-----------------0--------------

Song lyrics here
E|--
B|--
G|--
D|--
A|--
E|--

Paste any tab in acousterr's tab maker and we'll play it !!!
Now supports capo and sound effects for vibrato/pull-off/hammer/bends/mutes etc !!! Checkout help section
tabs and chords, guitar tabs, music contests, music covers, songsterr, reverbnation, renditions, tabulature, bollywood chords, ultimate guitar, yousician, guitar lessons, torrins, fender, gibson, acoustic guitar, electric guitar, youtube covers, gootar, guitar tuner, A-Z tabs, 911 tabs