Guitar Tabs for Black Rebel Motorcycle Club - Conscience Killer

(/) Slide Up  (\) Slide Down  (h) Hammer On  (p) Pull Off  (b) Bend (r) Release (v) Vibrato

Tabs for Song : 

Intro (x8) 
E|------------------------------
B|------------------------------
G|------------------------------
D|------------------------------
A|-----5^-----------------------
E|--7------7--5--7~--5--\/10\---


Verse (x3)
E|-----------------------------------------------------------------------------------------------------------
B|-----------------------------------------------------------------------------------------------------------
G|--------8--------8-----8--8-----8--------8-----8--8-----8--------8-----8--8-----8--7--7--7--7--9--9--7-----
D|--------9--------9-----9--9--7--9--------9-----9--9--7--9--------9-----9--9--7--9--7--7--7--7--9--9--7-----
A|--------9--------9-----9--9--7--9--------9-----9--9--7--9--------9-----9--9--7--9--5--5--5--5--7--7--5-----
E|--------7--------7-----7--7--5--7--------7-----7--7--5--7--------7-----7--7--5--7--------------------------
   I'm a con -   stant -         si -    nner          a con -  science -        kil -       ler         ...


(Note on verse) On some measures Peter plays an alteration like this
E|----------------------------------------
B|----------------------------------------
G|--------8--------8-----7--6--7--8-------
D|--------9--------9-----8--7--8--9-------
A|--------9--------9-----8--7--8--9-------
E|--------7--------7-----6--5--6--7-------



Chorus (x2)
E|-------------------------------------------------------------------------------------------------5/-----7-----------------------
B|-----------10-------10--------9----9--------------------------------10-------10--------9-----9---x/-----x-----------------------
G|-----------11-------11-------10---10-----6-----8--8--8--8--8--8--6--11-------11-------10----10---6/-----8--8--8--8--8--8--6-----
D|-----------12-------12-------11---11-----7-----9--9--9--9--9--9--7--12-------12-------11----11---7/-----9--9--9--9--9--9--7-----
A|-----------12-------12-------11---11-----7-----9--9--9--9--9--9--7--12-------12-------11----11---7/-----9--9--9--9--9--9--7-----
E|-----------10-------10--------9----9-----5-----7--7--7--7--7--7--5--10-------10--------9-----9---5/-----7--7--7--7--7--7--5-----
   Cause it don't -  mean -    all that -    much                 we never-   really - had -  a -    choice                   ...
   

Chorus ending
E|-----------------------------------------------------------------------------------------------------------
B|--------9--9--9--9--9--9--9--9--9--9--9--9--9--7--7--9-----9--9--9--9--9--10-9--10-9--9--9--9--9--10-9--7--
G|--------9--9--9--9--9--9--9--9--9--9--9--9--9--7--7--9-----9--9--9--9--9--10-9--10-9--9--9--9--9--10-9--7--
D|--------9--9--9--9--9--9--9--9--9--9--9--9--9--7--7--9-----9--9--9--9--9--10-9--10-9--9--9--9--9--10-9--7--
A|--------7--7--7--7--7--7--7--7--7--7--7--7--7--5--5--7-----7--7--7--7--7--8--7--8--7--7--7--7--7--8--7--5--
E|-----------------------------------------------------------------------------------------------------------
   We're con-                  science -                    kil -                   lers
   

Post-chorus bridge (x2) (Note: The notes on the B string are optional - they are not played 
on the studio version, but Peter frequently plays them live)
E|---------------------------------------------------------------
B|-----10b11b10--------10b11b10--------10b11b10------9^---7^-----
G|------9b10b9----------9b10b9----------9b10b9-------9^---7^-----
D|--9------------7--9------------7--9------------7------------7--
A|--9------------7--9------------7--9------------7------------7--
E|---------------------------------------------------------------


Verse (x3)
Chorus (x2)
Chorus ending


Bridge 1
E|---------------------------------------------------------------------------------------------------------------------------------------------------
B|--------------------------------------------------7-----7-----7-----7-----7-----7-----7-----7-----7-----7-----7-----7-----7-----7-----7-----7------
G|--4-----4-----4-----4-----13----13----13----13----9b11--9b11--9b11--9b11--9b11--9b10--9b10--9b10--9b10--9b10--9b10--9b10--9b10--9b9---9b9---9b9----
D|--5-----5-----5-----5-----14----14----14----14-----------------------------------------------------------------------------------------------------
A|--5-----5-----5-----5-----14----14----14----14-----------------------------------------------------------------------------------------------------
E|--3-----3-----3-----3-----12----12----12----12-----------------------------------------------------------------------------------------------------
         Don't want  no -  con -  science -   at    all

Intro (x8)


Bridge 2
E|----------------------------
B|----------------------------
G|---7b8-----9---5b7----------
D|-----------9----------------
A|-----------------------5----
E|---7b8----------------------

(x8)
E|----------------------------
B|----------------------------
G|---8-----11--(6)--8--6--8---
D|---9-----12--(7)--9--7--9---
A|---9-----12--(7)--9--7--9---
E|---7-----10--(5)--7--5--7---


Verse (x2)
Chorus (x2)
Chorus ending
Bridge 1


Outro
E|------------------------------------------------------
B|--11b12-12-12-12-12-12-12-12-12-12-12-12-12-11-10-7---
G|--10b11-11-11-11-11-11-11-11-11-11-11-11-11-10-9--6---
D|------------------------------------------------------
A|------------------------------------------------------
E|------------------------------------------------------

(x4)
E|------------------------------------------------------
B|------------------------------------------------------
G|--8-----11----6--8--6--8--6--8--11-8--6--8--6---------
D|--9-----12----7--9--7--9--7--9--12-9--7--9--7---------
A|--9-----12----7--9--7--9--7--9--12-9--7--9--7---------
E|--7-----10----5--7--5--7--5--7--10-7--5--7--5---------



tabs and chords, guitar tabs, music contests, music covers, songsterr, reverbnation, renditions, tabulature, bollywood chords, ultimate guitar, yousician, guitar lessons, torrins, fender, gibson, acoustic guitar, electric guitar, youtube covers, gootar, guitar tuner, A-Z tabs, 911 tabs