Guitar Tabs for Black Hills

(/) Slide Up  (\) Slide Down  (h) Hammer On  (p) Pull Off  (b) Bend (r) Release (v) Vibrato (x) Muted

Tabs & Chords
BPM : 170.0
Check Track 2 for Chord Positions 

    C#m                              F#m                     C#m   G#m         C#m               
E|-----16----------0-----------------------0-----------------------------------------------------
B|-----------------------------------------------------------14----0-----0-----------------------
G|-----------13----------------16----------------------13----------------------13----13-13----16-
D|--------16-------------------------------------16----------------------------------------------
A|-----------------------------------16----------------------------------------------------------
E|--9--------------------9-----------------------------------------------------------------------

       F#m                        C#m                        A                       C#       
E|--------------------------0-----------0-----------------------------------------------------
B|-----14----14----16-------------------------------------------------------------------------
G|-----------------------------------------------------16----16----------13----------------13-
D|--------------------13----------------------------------------------------------------------
A|--------------------------------16-------16----------------------16----------16----16-------
E|-----------------------------------------------9--------------------------------------------

                   A     E                 C#                G# 
E|--------------------------------------------------------------
B|--------------------------------------------------------------
G|-----------13----------13----------13-------------------------
D|-----------------------------------------16----------16----13-
A|-----16----------16----------16----------------16-------------
E|--------------------------------------------------------------

Guitar Tabs for Black Hills






    C#m                              F#m                     C#m   G#m         C#m               
E|--4--------------------------------2-----------------------4-----4-----------4-----------------
B|--5--------------------------------2-----------------------5-----4-----------5-----------------
G|--6--------------------------------2-----------------------6-----4-----------6-----------------
D|--6--------------------------------4-----------------------6-----6-----------6-----------------
A|--4--------------------------------4-----------------------4-----6-----------4-----------------
E|-----------------------------------2-----------------------------4-----------------------------

       F#m                        C#m                        A                       C#       
E|-----2--------------------------4--------------------------0-----------------------4--------
B|-----2--------------------------5--------------------------2-----------------------6--------
G|-----2--------------------------6--------------------------2-----------------------6--------
D|-----4--------------------------6--------------------------2-----------------------6--------
A|-----4--------------------------4--------------------------0-----------------------4--------
E|-----2--------------------------------------------------------------------------------------

                   A     E                 C#                G# 
E|-----------------0-----0-----------------4-----------------4--
B|-----------------2-----0-----------------6-----------------4--
G|-----------------2-----1-----------------6-----------------5--
D|-----------------2-----2-----------------6-----------------6--
A|-----------------0-----2-----------------4-----------------6--
E|-----------------------0-----------------------------------4--

tabs and chords, guitar tabs, music transcription, music technology, deep learning, music information retrieval, transcribe into tabs & chords, chordify, music renditions, songsterr, reverbnation, tabulature, bollywood chords, ultimate guitar, yousician, guitar lessons, acoustic guitar, electric guitar, guitar tuner, 911 tabs