Guitar Tabs for Bitter Roots

(/) Slide Up  (\) Slide Down  (h) Hammer On  (p) Pull Off  (b) Bend (r) Release (v) Vibrato (x) Muted

Tabs & Chords
BPM : 133.0
Check Track 2 for Chord Positions 

          A#m                                    F#          F#                               
C|--------------------------------------------------------------------------------------------
G|--------------------------------------------------------------------------------------------
D|-----------------------------------------------------------------------3--3--3--------------
A|-----------3-----3--------------3--------4-----4--4--4-----4-----4--4--------------4-----4--
F|--1-----4-----------4-----4--------4--------------------------------------------------------
C|--------------------------------------------------------------------------------------------

             A#m                                                C                    F#          
C|-----------------------------------------------------------------------------------------------
G|-----------------------------1-----1--2-----2-----------1-----1--1--------1--------------------
D|--------------------3-----3--------------------------------------------3-----3-----3-----------
A|-----------3--------------------------------------------------------------------------4-----4--
F|-----4--------4-----------------------------------4--------------------------------------------
C|-----------------------------------------------------------------------------------------------

                         Fm       F#                               
C|--------------------------------------------------------------16-
G|--------------------------------1-----------------1--4-----2-----
D|-----3-----------3-----3--------------3-----3--------------------
A|-----------4--------------4--------------------------------------
F|-----------------------------------------------------------------
C|-----------------------------------------------------------------









Guitar Tabs for Bitter Roots






          A#m                                    F#          F#                               
E|--------1--------------------------------------2-----------2--------------------------------
B|--------2--------------------------------------2-----------2--------------------------------
G|--------3--------------------------------------3-----------3--------------------------------
D|--------3--------------------------------------4-----------4--------------------------------
A|--------1--------------------------------------4-----------4--------------------------------
E|-----------------------------------------------2-----------2--------------------------------

             A#m                                                C                    F#          
E|-----------1--------------------------------------------------0--------------------2-----------
B|-----------2--------------------------------------------------1--------------------2-----------
G|-----------3--------------------------------------------------0--------------------3-----------
D|-----------3--------------------------------------------------2--------------------4-----------
A|-----------1--------------------------------------------------3--------------------4-----------
E|-----------------------------------------------------------------------------------2-----------

                         Fm       F#                               
E|-----------------------1--------2--------------------------------
B|-----------------------1--------2--------------------------------
G|-----------------------1--------3--------------------------------
D|-----------------------3--------4--------------------------------
A|-----------------------3--------4--------------------------------
E|-----------------------1--------2--------------------------------

tabs and chords, guitar tabs, music transcription, music technology, deep learning, music information retrieval, transcribe into tabs & chords, chordify, music renditions, songsterr, reverbnation, tabulature, bollywood chords, ultimate guitar, yousician, guitar lessons, acoustic guitar, electric guitar, guitar tuner, 911 tabs