Bass Tabs for Bits And Pieces Bass Tab

G|--10-10-10-10-------------------------------------------------------------------------------------------------
D|--------------------------------------------------------------------------------------------------1-----------
A|--------------5-----3-----1-----------5-----3-----1-----------1-----4-----1-----------1-----4-----------4-----
E|--------------------------------------------------------4-----------------------4-----------------------------

G|--------------------------------------------------------------------------------------------------------------
D|--------------------------------------------------------------------1-----------------------1-----------------
A|--1-----4-----1-----------1-----4-----1-----------3-----4-----3-----------3-----4-----3--------------1--3--4--
E|--------------------4-----------------------4-----------------------------------------------------4-----------

G|--------------------------------------------------------------------------------------------------------------
D|--------------------------------1-----------------------1-----------------------1-----------------------------
A|--3-----1-----3-----4-----3-----------3-----4-----3-----------3-----4-----3--------------1--3--4--3-----1-----
E|--------------------------------------------------------------------------------------4-----------------------

G|--------------------------------------------------------------------------------------------------------------
D|--------------------------------------------------------------------------------------1-----------------------
A|--5-----3-----1-----------5-----3-----1-----------1-----4-----1-----------1-----4-----------4-----1-----4-----
E|--------------------------------------------4-----------------------4-----------------------------------------

G|--------------------------------------------------------------------------------------------------------------
D|--------------------------------1-----------------------1-----------------------------------------------1-----
A|--1-----------3-----4-----3-----------3-----4-----3--------------1--3--4--3-----1-----3-----4-----3-----------
E|--------4-----------------------------------------------------4-----------------------------------------------

G|--------------------------------------------------==
D|--------------------1-----------------------1-----
A|--3-----4-----3-----------3-----4-----3-----------
E|--------------------------------------------------


tabs and chords, guitar tabs, music transcription, music technology, deep learning, music information retrieval, transcribe into tabs & chords, chordify, music renditions, songsterr, reverbnation, tabulature, bollywood chords, ultimate guitar, yousician, guitar lessons, acoustic guitar, electric guitar, guitar tuner, 911 tabs