Bass Tabs for Bill Haley & His Comets - Rock Around The Clock

Bill Haley & His Comets - Rock Around The Clock

Intro
G|--------------------------------------------------------------------------
D|--------------------------------------------------------------------------
A|-----------------------------------------------------7-----7-----7-----7--
E|--5-----------------5--------------------5--------------------------------

Blues in A - Slow Change

Variation

G|--------------------------------------------------
D|-----------4--5--4--------7--6--5--4-----4--5--6--
A|-----4--7-----------7--4--------------7-----------
E|--5-----------------------------------------------

G|-----------4--5--4--------7--6--5--4-----4--5--6--
D|-----4--7-----------7--4--------------7-----------
A|--5-----------------------------------------------
E|--------------------------------------------------

G|-----------6--7--6-----------------4--5--4-----------------------------------------
D|-----6--9-----------9--6-----4--7-----------7--4-----------4--5--4-----------------
A|--7-----------------------5--------------------------4--7-----------7--4-----7--7--
E|--------------------------------------------------5--------------------------------

tabs and chords, guitar tabs, music transcription, music technology, deep learning, music information retrieval, transcribe into tabs & chords, chordify, music renditions, songsterr, reverbnation, tabulature, bollywood chords, ultimate guitar, yousician, guitar lessons, acoustic guitar, electric guitar, guitar tuner, 911 tabs