Guitar Tabs for Big Sur Moon

(/) Slide Up  (\) Slide Down  (h) Hammer On  (p) Pull Off  (b) Bend (r) Release (v) Vibrato (x) Muted

Tabs for Song : 

Song lyrics here
E|-----------------------------------------------------------------------------------------------------
B|-----------------------------------------------------------------------------------------------------
G|-----------------------------------------------------------------------------------------------------
D|-----------------------------------------------------------------------------------------------------
A|-----9--7--9--5--9--4--9-----9--7--9--5--9--4--9-----5--4--5--2--5--0--5-----5--4--5--2--5--0--5-----
E|--7-----------------------7-----------------------3-----------------------3--------------------------

Song lyrics here
E|--------------------------------------------------------------------------------------------------
B|--------------------------------------------------------------------------------------------------
G|--------------------------------------------------------------------------------------------------
D|--------------------------------------------------------------------------------------------------
A|-----9--7--9--5--9--4--9-----9--7--9--5--9--4--9-----5--4--5--0--2--5--4-----5--4--5--0--2--5--4--
E|-6------------------------7-----------------------3-----------------------3-----------------------

E|-----------------------------------------------------------------------------------------------------
B|-----------------------------------------------------------------------------------------------------
G|-----------------------------------------------------------------------------------------------------
D|-----9--12-9-----9--12-9-----9--12-9-----7--11-7-----9--12-9-----9--12-9-----5--9--5-----7--11-7-----
A|-9------------9-----------9-----------7-----------9-----------9-----------5-----------7--------------
E|-----------------------------------------------------------------------------------------------------

E|--------------------------------------------------------------------------------------------------
B|--------------------------------------------------------------------------------------------------
G|--------------------------------------------------------------------------------------------------
D|-----9--12-9-----9--12-9-----9--12-9-----7--11-7-----5--9--5-----5--9--5-----5--9--5-----5--9--5--
A|--9-----------9-----------9-----------7-----------5-----------5-----------5-----------5-----------
E|--------------------------------------------------------------------------------------------------

E|--------------------------7--10-9--10-7--------------------------------------------------7--10-9-----
B|-----------------------7-----------------7--------------------------------------------7--------------
G|--------------------7-----------------------7--------------------------------------7-----------------
D|-----------9--7--11----------------------------9--------------------------9--7--11-------------------
A|--------9-----------------------------------------9--------------------9-----------------------------
E|--7--10----------------------------------------------10-9--10-9--7--10-------------------------------

E|--10-7--------------------------------------------------7--9--10-14-10----10-14-10----12-14-12-10----
B|--------7--------------------------------------------7-----------------14----------14----------------
G|-----------7-----------------------------------6--7--------------------------------------------------
D|--------------9-----------------------------9--------------------------------------------------------
A|-----------------9-----------------------9-----------------------------------------------------------
E|--------------------10-9--10-9--7--9--10-------------------------------------------------------------

E|-----------------------------------------------------------7--9--10-9-----------------------------
B|--14-10-------------------------------------------------7--------------10-------------------------
G|--------12-11----------------------------------------7--------------------9--7--6-----8--6--7--9--
D|--------------12-11-9--------------------------9--11-------------------------------7--------------
A|-----------------------10-9-----------------9-----------------------------------------------------
E|-----------------------------10-9--7--9--10-------------------------------------------------------

E|--------------------------------------------------------------------------------------7--10-9--7--
B|-----------------------------------------------------------------------------------7--------------
G|--7--6--------------7--7--6-----------------------------------------------4--6--7-----------------
D|--------7-----7--7-----------7-----------------------------------------4--------------------------
A|-----------7--------------------7--5--4--0--5--7--5--4--------2--4--5-----------------------------
E|--------------------------------------------------------5--3--------------------------------------

E|--------------------------------------------------------------------------------------
B|--8-----7-----------------------------------------------------------------------------
G|-----9-----7--9--7--6--7--6-----------------------------------------------------------
D|-----------------------------9--7--9-----9--12-9-----9--12-9-----9--12-9-----7--11-7--
A|--------------------------------------9-----------9-----------9-----------7-----------
E|--------------------------------------------------------------------------------------

E|--------------------------------------------------------------------------------------------------
B|--------------------------------------------------------------------------------------------------
G|--------------------------------------------------------------------------------------------------
D|-----9--12-9-----9--12-9-----7--11-7-----9--7--9-----9--7--9--7--9--7--9--7--9--7--9--7--9--7--9--
A|--9-----------9-----------7-----------5-----------5-----------------------------------------------
E|--------------------------------------------------------------------------------------------------

E|-----------------7--7-----------------
B|--------------7--------7--------------
G|-----------7--------------7-----------
D|--------11-------------------11-------
A|-----9--------------------------9-----
E|--7--------------------------------7--


Paste any tab in acousterr's tab maker and we'll play it !!!
Now supports capo and sound effects for vibrato/pull-off/hammer/bends/mutes etc !!! Checkout help section
tabs and chords, guitar tabs, music contests, music covers, songsterr, reverbnation, renditions, tabulature, bollywood chords, ultimate guitar, yousician, guitar lessons, torrins, fender, gibson, acoustic guitar, electric guitar, youtube covers, gootar, guitar tuner, A-Z tabs, 911 tabs