Guitar Tabs for Bhar Do Jholi Meri

(/) Slide Up  (\) Slide Down  (h) Hammer On  (p) Pull Off  (b) Bend (r) Release (v) Vibrato (x) Muted

Tabs for Song : 

Song lyrics here INTRO
E|--------------7--7--
B|--------7--9--------
G|---7\9--------------
D|--------------------
A|--------------------
E|--------------------

E|--------------7--
B|--------7--9--9--
G|---7\9-----------
D|-----------------
A|-----------------
E|-----------------

Song lyrics here Main Part
E|--------------7--7--9--9--7--7-----------------------------------------------------------------------------
B|--------7--9--------------------10-9---9h10-10-10-9--7--9--7--------------7--7--7---9\10-10-9---7h9--7-----
G|---7\9--------------------------------------------------------9--8--8--9--------------------------------9--
D|-----------------------------------------------------------------------------------------------------------
A|-----------------------------------------------------------------------------------------------------------
E|-----------------------------------------------------------------------------------------------------------

E|---------------7--7--9--9--7--7-----------------------------------------------------------------------------
B|--------7--9--------------------10-9---9h10-10-10-9--7--9--7--------------7--7--7---9\10-10-9---7h9--7-----
G|---7\9--------------------------------------------------------9--8--8--9--------------------------------9--
D|-----------------------------------------------------------------------------------------------------------
A|-----------------------------------------------------------------------------------------------------------
E|-----------------------------------------------------------------------------------------------------------

E|-----7---9\12-12-12-12-11--9/7--7---9\11-11-9--7--9--7-----------------------------------------------------------------------------------------------------
B|--9-----------------------------------------------------10-9--9--10\12-12-12-12\16-16-16-14/12-12h14-14-12-10\9--10-10\12-12-12-14-12-10/9---9/7---9h7-----
G|--------------------------------------------------------------------------------------------------------------------------------------------------------9--
D|-----------------------------------------------------------------------------------------------------------------------------------------------------------
A|-----------------------------------------------------------------------------------------------------------------------------------------------------------
E|-----------------------------------------------------------------------------------------------------------------------------------------------------------


Paste any tab in acousterr's tab maker and we'll play it !!!
Now supports capo and sound effects for vibrato/pull-off/hammer/bends/mutes etc !!! Checkout help section
tabs and chords, guitar tabs, music transcription, music technology, deep learning, music information retrieval, transcribe into tabs & chords, chordify, music renditions, songsterr, reverbnation, tabulature, bollywood chords, ultimate guitar, yousician, guitar lessons, acoustic guitar, electric guitar, guitar tuner, 911 tabs