Besame Mucho - Guitar Tabs

(/) Slide Up  (\) Slide Down  (h) Hammer On  (p) Pull Off  (b) Bend (r) Release (v) Vibrato (x) Muted

Tabs for Song : 
BPM : 200

1er Guitarra
E|-----------------------------------3--3--3--5--5--5--6--6--6--9--10-12----
B|-----------------6---8/10-8--8-----------------------------------------10-
G|--7--7--7--7--9--------------------3--3--3--5--5--5--7--7--7--------------
D|--------------------------------------------------------------------------
A|--------------------------------------------------------------------------
E|--------------------------------------------------------------------------

E|-----------------------------------3--3--3--5--5--5--6--6--6--9--10-12----
B|-----------------------------------------------------------------------10-
G|-----------------------------------3--3--3--5--5--5--7--7--7--------------
D|---------------------5/7--7--7--------------------------------------------
A|--5--5--5--5--7--8--------------------------------------------------------
E|--------------------------------------------------------------------------

E|--10-10-10-10-8--6--5--------------10----------------------------------
B|------------------------6/8--8--------10----10-------------------------
G|--11-11-11-------------------------------10----10----10-9--9--10-12-9--
D|--------------------------------------------------12-------------------
A|-----------------------------------------------------------------------
E|-----------------------------------------------------------------------

E|--9--10-12-13----------------------------------------------------
B|--------------13-12-11----11-11-11-11-10-10-10-10-8--6--8--8-----
G|--------------------------12-12-12-12-10-10----------------------
D|-----------------------------------------------------------------
A|-----------------------------------------------------------------
E|-----------------------------------------------------------------

E|--------------------------------------------------------------------------
B|--5--6---8/11-10----11-11-11-11-10-10-10-10-8--6--8--8-----5--6--8--6--5--
G|--------------------12-12-12-12-10-10-------------------------------------
D|--------------------------------------------------------------------------
A|--------------------------------------------------------------------------
E|--------------------------------------------------------------------------


Use manual mode to free up cursor. Paste any tab in acousterr tab maker and we'll play it !!!

About Besame Mucho (film) : Besame Mucho is a Brazilian romance drama film directed by Francisco Ramalho Jr., based on the play The filming took place in July 1986 in different locations of São Paulo . The filming It was awarded the Best Film at the 13th Festival de Cine Iberoamericano de Huelva . It won the Best Screenplay and Best Costume Design

tabs and chords, guitar tabs, music transcription, music technology, deep learning, music information retrieval, transcribe into tabs & chords, chordify, music renditions, songsterr, reverbnation, tabulature, bollywood chords, ultimate guitar, yousician, guitar lessons, acoustic guitar, electric guitar, guitar tuner, 911 tabs