Guitar Tabs for Berakhirlah Sudah Instrumental

(/) Slide Up  (\) Slide Down  (h) Hammer On  (p) Pull Off  (b) Bend (r) Release (v) Vibrato (x) Muted

Tabs for Song : 

Song lyrics here
E|-----9-----7--------------------------------------------------------------------
B|--7-----------10-9--7--------7--10-9--------10-10-9--7--5-----5-----5---7\9--7--
G|--------------------------7--------------9-----------------------6--------------
D|--------------------------------------------------------------------------------
A|--------------------------------------------------------------------------------
E|--------------------------------------------------------------------------------

E|--------------9-----------7--------------------7--9--------
B|--7--9--10-7-----7--9--10----9--10-12-------9--------7--5--
G|-----------------------------------------9-----------------
D|-----------------------------------------------------------
A|-----------------------------------------------------------
E|-----------------------------------------------------------

Solo :
E|--------------------------------------------------------
B|--------------------------------------------------12b12-
G|------------------------9b9------6b6--4--6--7--9--------
D|------------------7\9-----------------------------------
A|------------4\7-----------------------------------------
E|--0--5--7-----------------------------------------------

E|--------------------12-------------------------------------------------
B|--12-14-------12-14-------12-14-------12b12----12-10-12----10-14-12-10-
G|--------14----------------------14-------------------------------------
D|-----------------------------------------------------------------------
A|-----------------------------------------------------------------------
E|-----------------------------------------------------------------------

E|--12-------------------------------------------------
B|-----12-14-10----------------------------------------
G|-----------------9--------------------------9--7--6--
D|--------------------9--11-7--------------------------
A|-----------------------------7-----------------------
E|--------------------------------7--9--5--------------

Paste any tab in acousterr's tab maker and we'll play it !!!
Now supports capo and sound effects for vibrato/pull-off/hammer/bends/mutes etc !!! Checkout help section
tabs and chords, guitar tabs, music transcription, music technology, deep learning, music information retrieval, transcribe into tabs & chords, chordify, music renditions, songsterr, reverbnation, tabulature, bollywood chords, ultimate guitar, yousician, guitar lessons, acoustic guitar, electric guitar, guitar tuner, 911 tabs