Guitar Tabs for Bella Ciao!

Tabs for Song : Bella Ciao!

    Stamattina           mi sono alzato.     O bella ciao!  Bella ciao! Bella ciao ciao caio!
   (Una mattina          mi sono svegliato)
E|-------------------|--------------------|------------------------------------0-----0-----0-|
B|--------0--1-------|---------0--1-------|---------0--1-----0-----1-----0-------------------|
G|-----2--------2----|------2--------2----|------2--------------2-----------2----------------|
D|--2----------------|---2----------------|---2----------------------------------------------|
A|-------------------|--------------------|--------------------------------------------------|
E|-------------------|--------------------|--------------------------------------------------|

    Stamattina           mi sono alzato,      e  ho trovato        l'invasor
   (Una mattina          mi sono svegliato)
E|--0-----0--1--1----|---1--0-----1--0----|---0--------------0-------------------------------|
B|-----3-------------|---------3----------|------3--1--0-----------0-----1-------------------|
G|-------------------|--------------------|------------------------------------2-------------|
D|-------------------|--------------------|--------------------------------------------------|
A|-------------------|--------------------|--------------------------------------------------|
E|-------------------|--------------------|--------------------------------------------------|

    O  partigiano,       porta mi via.        O bella ciao!  Bella ciao! Bella ciao ciao caio!
E|-------------------|--------------------|------------------------------------0-----0-----0-|
B|--------0--1-------|---------0--1-------|---------0--1-----0-----1-----0-------------------|
G|-----2--------2----|------2--------2----|------2--------------2-----------2----------------|
D|--2----------------|---2----------------|---2----------------------------------------------|
A|-------------------|--------------------|--------------------------------------------------|
E|-------------------|--------------------|--------------------------------------------------|

    O  partigiano,       prta  mi via,        ché   mi sento       di    morir.
E|--0-----0--1--1----|---1--0-----1--0----|---0--------------0-------------------------------|
B|-----3-------------|---------3----------|------3--1--0-----------0-----1-------------------|
G|-------------------|--------------------|------------------------------------2-------------|
D|-------------------|--------------------|--------------------------------------------------|
A|-------------------|--------------------|--------------------------------------------------|
E|-------------------|--------------------|--------------------------------------------------|

    E  se io muoio       da partigiano,       O bella ciao!  Bella ciao! Bella ciao ciao caio!
   (E  se io muoio       sulla montagna,)
E|-------------------|--------------------|------------------------------------0-----0-----0-|
B|--------0--1-------|---------0--1-------|---------0--1-----0-----1-----0-------------------|
G|-----2--------2----|------2--------2----|------2--------------2-----------2----------------|
D|--2----------------|---2----------------|---2----------------------------------------------|
A|-------------------|--------------------|--------------------------------------------------|
E|-------------------|--------------------|--------------------------------------------------|

    E  se io muoio       da partigiano,       tu    mi devi        seppellir.
   (E  se io muoio       sulla montagna)
E|--0-----0--1--1----|---1--0-----1--0----|---0--------------0-------------------------------|
B|-----3-------------|---------3----------|------3--1--0-----------0-----1-------------------|
G|-------------------|--------------------|------------------------------------2-------------|
D|-------------------|--------------------|--------------------------------------------------|
A|-------------------|--------------------|--------------------------------------------------|
E|-------------------|--------------------|--------------------------------------------------|

    E  seppellire        lassú in montagna.   O bella ciao!  Bella ciao! Bella ciao ciao caio!
   (E  tu mi devi        seppellire)
E|-------------------|--------------------|------------------------------------0-----0-----0-|
B|--------0--1-------|---------0--1-------|---------0--1-----0-----1-----0-------------------|
G|-----2--------2----|------2--------2----|------2--------------2-----------2----------------|
D|--2----------------|---2----------------|---2----------------------------------------------|
A|-------------------|--------------------|--------------------------------------------------|
E|-------------------|--------------------|--------------------------------------------------|

    E  seppellire        lassú in montagna,   sotto l'ombra  di    un    bel   fior.
   (E  tu mi devi        seppellire,)
E|--0-----0--1--1----|---1--0-----1--0----|---0--------------0-------------------------------|
B|-----3-------------|---------3----------|------3--1--0-----------0-----1-------------------|
G|-------------------|--------------------|------------------------------------2-------------|
D|-------------------|--------------------|--------------------------------------------------|
A|-------------------|--------------------|--------------------------------------------------|
E|-------------------|--------------------|--------------------------------------------------|

    Tutte le genti       che passerano.       O bella ciao!  Bella ciao! Bella ciao ciao caio!
   (E  tutti quelli      che passerano)
E|-------------------|--------------------|------------------------------------0-----0-----0-|
B|--------0--1-------|---------0--1-------|---------0--1-----0-----1-----0-------------------|
G|-----2--------2----|------2--------2----|------2--------------2-----------2----------------|
D|--2----------------|---2----------------|---2----------------------------------------------|
A|-------------------|--------------------|--------------------------------------------------|
E|-------------------|--------------------|--------------------------------------------------|

    Tutte le genti       che passerano,       mi    diranno       "Che   bel   fior!"
   (E tutti quelli       che passerano,       e poi diranno       "Che   bel   fior!"
E|--0-----0--1--1----|---1--0-----1--0----|---0--------------0-------------------------------|
B|-----3-------------|---------3----------|------3--1--0-----------0-----1-------------------|
G|-------------------|--------------------|------------------------------------2-------------|
D|-------------------|--------------------|--------------------------------------------------|
A|-------------------|--------------------|--------------------------------------------------|
E|-------------------|--------------------|--------------------------------------------------|

    É  questo il fiore   del partigiano.      O bella ciao!  Bella ciao! Bella ciao ciao caio!
   (E questo é il fiore  del partigiano.)
E|-------------------|--------------------|------------------------------------0-----0-----0-|
B|--------0--1-------|---------0--1-------|---------0--1-----0-----1-----0-------------------|
G|-----2--------2----|------2--------2----|------2--------------2-----------2----------------|
D|--2----------------|---2----------------|---2----------------------------------------------|
A|-------------------|--------------------|--------------------------------------------------|
E|-------------------|--------------------|--------------------------------------------------|

    É  questo il fiore   del partigiano,      morto    per   la    liberta
   (E questo é il fiore  del partigiano,      che é morto per la    liberta.)
E|--0-----0--1--1----|---1--0-----1--0----|---0--------------0-------------------------------|
B|-----3-------------|---------3----------|------3--1--0-----------0-----1-------------------|
G|-------------------|--------------------|------------------------------------2-------------|
D|-------------------|--------------------|--------------------------------------------------|
A|-------------------|--------------------|--------------------------------------------------|
E|-------------------|--------------------|--------------------------------------------------|
tabs and chords, guitar tabs, music transcription, music technology, deep learning, music information retrieval, transcribe into tabs & chords, chordify, music renditions, songsterr, reverbnation, tabulature, bollywood chords, ultimate guitar, yousician, guitar lessons, acoustic guitar, electric guitar, guitar tuner, 911 tabs