Guitar Tabs for Believer

(/) Slide Up  (\) Slide Down  (h) Hammer On  (p) Pull Off  (b) Bend (r) Release (v) Vibrato (x) Muted

Tabs for Song :                   
 
Song lyrics here
C|---------3/4------3\2------2p0-----2------2h4---2p0------------------3/4-----2------2p0--
A|--0-----------------0--------------0-----------------0--------0--------------0-----------
F|--0-----------------0--------------0--------------------3--------------------------------
A|-----------------------------------------------------------------------------------------
F|--------------------------------------------------------------1--------------------------
A|--0--------------------------------0-----------------------------------------------------
                                             A.H         A.H
C|--2------2h4---2p0------------------------------------------------3/4---3\-2p0--------
A|--2-----------------0--------0--------------0-----------------------------------0-----
F|--4--------------------3--------------------------------0--------------------------3--
A|--------------------------------------------------------------------------------------
F|--0-----------------------------------------------------------------------------------
A|-----------------------------0--------------------0-----------------------------------
               A.H 
C|--------0---------------------------------------------------3/4------3\2------2p0--
A|--0-----------0--------------------------------------0-----------------------------
F|--------------------------4--------------------------0-----------------------------
A|--------------------------------------2-----2--------------------------------------
F|--1-----------------0-----0-----------0--------------------------------------------
A|-----------------------------------------------------0-----------------------------

C|--2------2h4---2p0------------------3/4-----2------2p0-----2------2h4---2p0--------
A|-----------------------------0-----------------------------2-----------------0-----
F|-----------------------3-----------------------------------4--------------------3--
A|-----------------------------------------------------------------------------------
F|-----------------------------1-----------------------------0-----------------------
A|--0--------------------------------------------------------------------------------
               A.H.        A.H.                                      A.H.


C|------------------------------------3/4------3\-2p0--------------0----------------- 
A|--0--------------0-----------------------------------0--------0--------0-----------
F|-----------------------------0--------------------------3--------------------------
A|-----------------------------------------------------------------------------------
F|--------------------------------------------------------------1-----------------0--
A|--0--------------------0--------0--------------------------------------------------
   A.H.
C|-----------------------------------------------------------------------------------------------
A|-----------------0--0-----0--0-----0--0--0-----0--0--0-----0-----0-----0--0--0-----0--0--0-----
F|--4--------------------------------------0-----------------------------------0-----------------
A|-----------2-----------------------------0-----------------------------------0-----------------
F|--0--------0-----------------------------------------------------------------------------------
A|--------------------------0--------------------------------0-----------------------------------

C|-----------------------------------------------------------------------------------------------------------
A|--0-----0-----0--0--0-----0--0--0-----2--2--2--2--2--2--2-----2--2--2--2-----0--0-----0--0--0-----0--0--0--
F|--------------------0--------------------------------------0--------------------------------0--------------
A|--------------------0-----------------------------------------------------------------------0--------------
F|--1-----------------------------------0--------------------------------------------------------------------
A|-----------------------------------------------------------------------------0-----------------------------

C|-----------------------------------0-----0-----0--0--0-----0--0--0--------------------------------
A|--0--0-----0--0--0-----0--0--0-----------------------0-----------------2--2--2--2--2--2-----------
F|-----------------0-----------------------------------0--------------------------------------------
A|-----------------0------------------------------------------------------------------------7\0-----
F|-----------------------------------1-----------------------------------0------------------7\0-----
A|--0---------------------------------------------------------------------------------------7\0-----
                A.H.all                                                 A.H.all
C|--------------------------------12----12\11----9--12----12\11-------9-----0-----------------12-
A|-----------------0--------------0------0\------0--0------0\---------------0--------------------
F|-----------------0--------0-----------------------------------------------0--------------------
A|-----------------0--------------------------------------------------------------------8--------
F|--0--------------------------------------------------------------------------------------------
A|--0--------------------0--------0-----------------------------------8--------------8-----------
                                                 A.H.all
C|--11----8-----------------------------------------------------------12----12\11----9--12----12\11----9--
A|--------7-----------------------------------------0-----------------0------0\------0--0------0\---------
F|--------------7--7-----7--7-----------------------0-----------0-----------------------------------------
A|--------------7--7-----7--7-----------------------0-----------------------------------------------------
F|--------------7--7-----7--7--------0--------------------------------------------------------------------
A|--7-----------7--7-----7--7--------0--------------------0-----------0-----------------------------------
       A.H.all
C|--0-----0-----------------12\11-------8-----------------------------2-----------------
A|--------0-----------------------------7-----------------------------0--------------0--
F|--------0--------------------------------------7--7-----7--7--------0-----------------
A|--------------------8--------------------------7--7-----7--7--------------------------
F|--------------------8--------------------------7--7-----7--7--------------------------
A|--8--------------8-----------7-----------------7--7-----7--7--------0-----------------

C|--2-----0--2-----0--2-----0--2-----0-----2--------------------2-----0--2-----0--2-----0--2-----2--
A|--0--------0--------0--------0-----------0--------------0-----0--------0-----0--0-----0--0-----0--
F|-----------------------------------------0--------------------------------------------------------
A|--------------------------------------------------------------------------------------------------
F|-----------------------------------------1--------------------0-----------------------------------
A|--0-----------------------------------------------------------------------------------------------
                A.H.all                                                        A.H.all
C|-----------------------------------12----12p11----9--12----12p11----9-----0-----0---------------------2\0--
A|-----------------0-----------------0------0p------0--0------0p------------------0--------------0-----------
F|-----------------0-----------0--------------------------------------------------0--------------------------
A|-----------------0-----------------------------------------------------------------------------------------
F|--0--------------------------------------------------------------------------------------------------------
A|--0--------------------0-----------0--------------------------------------0--------------8-----------------

C|-----11----8------------------------------------2/4-----2------2p0--------2------2h4------2p0--------
A|-----------7-----------------------------0--------------0-----------------0--------------------0-----
F|--------------------7--7-----7--7--------0--------------------------------------------------------3--
A|--------------------7--7-----7--7--------------------------------------------------------------------
F|--------------------7--7-----7--7--------------------------------------------------------------------
A|-----7--------------7--7-----7--7--------0--------------------------------0--------------------------

C|------------3/4-----2------2p0--------2------2h4---2p0--------------------------------------
A|-----0--------------------------------2-----------------0--------0--------------------------
F|--------------------------------------4--------------------3--------------------------------
A|--------------------------------------------------------------------------------------------
F|-----1--------------------------------0-----------------------------------------------------
A|--------------------------------------------------------------------0--------------------0--
      A.H.                                         A.H.           A.H. 
C|-----------------4---2p0-----------------2--------------------------------------------------
A|--------------------------0--------0--------------0-----------------------------------0--0--
F|-----0-----------------------3-----------------------------------4--------------------------
A|-----------------------------------------------------------------------------2-----2--------
F|-----------------------------------1-----------------------0-----0-----------0--------------
A|-----------0--------------------------------------------------------------------------------

C|-----------------------------------------------------------------------0--0-----0--0--0-----0--0--0--
A|-----0--0-----0--0--0-----0--0--0-----0--0-----0--0--0-----0--0--0--------------------0--------------
F|--------------------0--------------------------------0--------------------------------0--------------
A|--------------------0--------------------------------0-----------------------------------------------
F|-----------------------------------------------------------------------1-----------------------------
A|-----0--------------------------------0--------------------------------------------------------------

C|-----------------------------------------------------------------------------------------------------------------
A|-----2--2-----2--2--2-----0--0--0------3p0--0---3p0--0--3--3--3--3--3--3------3p0--0---3p0--0--3--3--3--3--3--3--
F|--------------------------------------------------------0--------------------------------------0-----------------
A|-----------------------------------------------------------------------------------------------------------------
F|-----0-----------------------------------------------------------------------------------------------------------
A|---------------------------------------0p-------------------------------------0p---------------------------------
                                                                            A.H.all
C|-----------------------------------------------------------------------------------------------
A|-----3-----0-----------0--3-----2--------------------------------------------0-----------------
F|---------------------------------------0/0-----------------------------------0--------------0--
A|---------------------------------------2/0---------7/0-----------------------0-----------------
F|-----1---------------------------------0/0---------7/0--------0--------------------------------
A|---------------------------------------------------7/0--------0-----------------------0--------
                                                 A.H.all
C|-----12----12p11----9--12----12p11----9-----9-----0-----------------12p11-------8--------------------------
A|-----0------0p------0--0------0p------------------0-----------------------------7--------------------------
F|--------------------------------------------------0-----------------------------------7--7-----7--7--------
A|--------------------------------------------------------------8-----------------------7--7-----7--7--------
F|--------------------------------------------------------------------------------------7--7-----7--7--------
A|-----0--------------------------------------0--------------8-----------7--------------7--7-----7--7--------
                A.H.all                                                        A.H.all
C|-----------------------------------------12p11----9--------12p11----9-----9-----0-----0-----------------12-
A|-----------------0-----------------0------0p------0--0------0p------------0-----0-----0-----------0--------
F|-----------------0-----------0--------------------------------------------------0--------------------------
A|-----------------0-----------------------------------------------------------------------------------------
F|-----0-----------------------------------------------------------------------------------------------------
A|-----0-----------------0-----------0--------------------------------------8-----------------8--------------

C|--------11----8--------------------2--------------------2-----0--2-----0--2-----0--2-----0--
A|--------------7-----------------------------------0-----0--------0--------0--------0--------
F|--------------------7--7-----7--------------------------------------------------------------
A|--------------------7--7-----7--------------------------------------------------------------
F|--------------------7--7-----7--------------------------------------------------------------
A|--------7-----------7--7-----7-----0--------------------0-----------------------------------
                                                                               A.H.all
C|-----2-----------------2-----0--2-----0-----2-----0--2-----0-----------------------------------
A|-----0-----------0-----0--------0-----0-----0-----0--0-----0--------------------0--------------
F|-----0--------------------------------------------------------------------------0-----------0--
A|--------------------------------------------------------------------------------0--------------
F|-----1-----------------0-----------------------------------------0-----------------------------
A|-----------------------------------------------------------------0--------------------0--------
                                                    A.H.all
C|-----12----12p11----9--12-------12p11----9-----9-----0--------------------12\11----8-----------------
A|-----0------0p------0--0---------0p------------------0--------------0--------------7-----------------
F|-----------------------------------------------------0-----------------------------------7--7-----7--
A|-----------------------------------------------------------------------------------------7--7-----7--
F|-----------------------------------------------------------------------------------------7--7-----7--
A|-----0-----------------------------------------8--------------8--------------7-----------7--7-----7--

C|------------3/4------3\2------2h0-----2------2h4------2p0-----------------4-----2------2p0--
A|-----0-----------------------------------------------------0--------0-----------------------
F|--------------------------------------------------------------3-----------------------------
A|--------------------------------------------------------------------------------------------
F|--------------------------------------------------------------------1-----------------------
A|-----0--------------------------------0-----------------------------------------------------
                                                   A.H      A.H.
C|-----2------2h4---2p0-----------------0--------------------------------------4---2p0--------
A|-----2-----------------0--------0-----------------0-----------------------------------0-----
F|-----4--------------------3--------------------------------0-----------------------------3--
A|--------------------------------------------------------------------------------------------
F|-----0--------------------------------------------------------------------------------------
A|--------------------------------0-----------0--------------------0--------------------------
                  A.H.     A.H.
C|-----------0-----------------------------------------------------------------------------
A|-----0-----------0--------------------------0--0------3p0--0---3p0--0--3--3--3--3--3--3--
F|--------------------------4--------------------------------------------------------------
A|-----------------------------------------------------------------------------------------
F|-----1--------------------------0---------------------1p---------------------------------
A|-----------------------------------------------------------------------------------------
                                                                                       / \
C|-----------------------------------------------------------------------------------------
A|------3p0--0---3p0--0--3--3--3--3--3--3-----3-----2-----------2--3-----2-----------------
F|-----------------------------------------------------------------------------------------
A|--------------------------------------------------------------------------------------7--
F|------1p------------------------------------3--------------------------------4--------7--
A|--------------------------------------------------------------------------------------7--
      / \       / \                                                                  A.H.all
C|--------------------------------------------------------------------------------------0--
A|--------------------------------------------------------------------------------------0--
F|--------------------------------------------------------------------------------------0--
A|-----8--------10-------12-------------12----12----12----12----12-------12----12-------0--
F|-----8--------10-------12-------------12----12----12----12----12-------12----12-------0--
A|-----8--------10-------12-------------12----12----12----12----12-------12----12----------
                      A.H.all
C|--------------------------------------------12----12p11----9-----12----12p11----9--
A|--------------------------0-----------------0------0p------0-----0------0p---------
F|--------------------------0-----------0--------------------------------------------
A|--------------------------0--------------------------------------------------------
F|-----0-----------------------------------------------------------------------------
A|-----0--------------------------------------0--------------------------------------
             A.H.all
C|-----0--------0-----------------------------12\11-------8-----------------------------------------
A|--------------0--------------------0---------0\---------7-----------------------------------------
F|--------------0-----------------------------------------------------7-----7-----------7-----7-----
A|--------------------------------------------------------------------7-----7-----------7-----7-----
F|--------------------------------------------------------------------7-----7-----------7-----7-----
A|-----8-----------------------8-----------------7--------------------7-----7-----------7-----7-----
                               A.H.all
C|-----------------------------------------------------12-------12p11-------9-----12-------12p11----9--
A|--------------------------------0--------------------0---------0p---------0-----0---------0p---------
F|--------------------------------0--------------------------------------------------------------------
A|--------------------------------0--------------------------------------------------------------------
F|--------0--------------------------------------------------------------------------------------------
A|--------0--------------------------------0-----------0-----------------------------------------------
             A.H.all
C|-----9--------0-----------0--------------------------12p11----------8--------------------------
A|-----0--------0-----------0-----------------0---------0p------------7--------------------------
F|--------------0-----------------------------0--------------------------------7--7--------7--7--
A|-----------------------------------------------------------------------------7--7--------7--7--
F|-----------------------------------------------------------------------------7--7--------7--7--
A|-----8-----------------------------8--------------------7--------------------7--7--------7--7--

C|-----2-----------------------------------------2-----0--2-----0--2-----0--2-----0--
A|-----0--------------------------------0--------0--------0--------0--------0--------
F|-----0-----------------------------------------------------------------------------
A|-----------------------------------------------------------------------------------
F|-----------------------------------------------------------------------------------
A|-----0-----------------------------------------0-----------------------------------


C|--------2-----------------------2-----0--2-----0--2-----0--2-----0--
A|--------0--------------0--------0--------0-----0--0-----0--0-----0--
F|--------0-----------------------------------------------------------
A|--------------------------------------------------------------------
F|--------1-----------------------0-----------------------------------
A|--------------------------------------------------------------------
                            A.H.all
C|-----------------------------------------------------12-------12p11-------9-----12-------12p11-------9--
A|--------------------------0--------------------------0---------0p---------0-----0---------0p------------
F|--------------------------0-----------------0-----------------------------------------------------------
A|--------------------------0-----------------------------------------------------------------------------
F|--------0-----------------------------------------------------------------------------------------------
A|--------0--------------------------0-----------------0--------------------------------------------------
                A.H.all                                                                        A.H.123
C|--------0--------0--------------------------12\11-------8--------------------------------0-----------
A|-----------------0-----------------0--------------------7--------------------------------0-----------
F|-----------------0-----------------------------------------------7-----7--------7--------0-----------
A|-----------------------------------------------------------------7-----7--------7--------0-----------
F|-----------------------------------------------------------------7-----7--------7--------0-----------
A|--------0--------------------8-----------------7-----------------7-----7--------7--------0-----------

C|--
A|--
F|--
A|--
F|--
A|---

C|--
A|--
F|--
A|--
F|--
A|--

C|--
A|--
F|--
A|--
F|--
A|--

Paste any tab in acousterr's tab maker and we'll play it !!!
Now supports capo and sound effects for vibrato/pull-off/hammer/bends/mutes etc !!! Checkout help section

Guitar Tabs for Believer





E|--
B|--
G|--
D|--
A|--
E|--





E|--
B|--
G|--
D|--
A|--
E|--

tabs and chords, guitar tabs, music contests, music covers, songsterr, reverbnation, renditions, tabulature, bollywood chords, ultimate guitar, yousician, guitar lessons, torrins, fender, gibson, acoustic guitar, electric guitar, youtube covers, gootar, guitar tuner, A-Z tabs, 911 tabs