Bass Tabs for Behind Bars

(/) Slide Up  (\) Slide Down  (h) Hammer On  (p) Pull Off  (b) Bend (r) Release (v) Vibrato (x) Muted

Tabs for Song :Behind Bars
BPM : 165

Sloka (4x)
F|-----------x--x-----x--x--------------------x--x--x--------x--x--
C|-----------x--x-----x--x--------------------x--x--x--------x--x--
G|-----------x--x--1--x--x--------------------x--x--x--------x--x--
C|--2-----2--x--x-----x--x--3--2-----2-----2--x--x--x--6--6--x--x--

F|-----------x--x-----x--x--------------------x--x--------------
C|-----------x--x-----x--x--------------------x--x--------------
G|-----------x--x--1--x--x--------------------x--x--------------
C|--2-----2--x--x-----x--x--3--2-----2-----2--x--x--0--0--0--3--

Break  
F|--------------------------------------------------------------------------------------------------
C|--------------------------------------------------------------------------------------------------
G|--------------------------------------------------------------------------------------------------
C|--2--2--2--3--3--0--0--3--2--2--2--3--3--6--6--6--2--2--2--3--3--0--0--3--2--2--2--3--3--1--1--1--

F|--------------------------------------------------------------------------------------------------
C|--------------------------------------------------------------------------------------------------
G|--------------------------------------------------------------------------------------------------
C|--2--2--2--3--3--0--0--3--2--2--2--3--3--6--6--6--2--2--2--3--3--0--0--3--3--3--3--3--3--3--3--3--

Refrén
F|--------------------------------------------------
C|--------------------------------------------------
G|--------------------------------------------------
C|--2--2--2--2--2--2--2--2--2--2--2--2--2--2--2--2--

F|--------------------------------------------------
C|--------------------------------------------------
G|--------------------------------------------------
C|--2--2--2--2--2--2--2--2--2--2--2--2--0--0--0--0--

F|--------------------------------------------------
C|--------------------------------------------------
G|--3--3--3--3--3--3--3--3--3--3--3--3--3--3--3--0--
C|--------------------------------------------------

F|--------------------------------------------------
C|--------------------------------------------------
G|--5--5--5--5--5--5--5--5--6--6--6--6--6--6--6--6--
C|--------------------------------------------------

F|--------------------------------------------------
C|-----9--7--------10-9--------9--7--------10-9-----
G|--7--------10-7--------10-7--------10-7--------10-
C|--------------------------------------------------

F|--------------------------
C|--------------------------
G|--7--7--7--7--5--5--5--5--
C|--------------------------

F|--------------------------------------------------
C|--------------------------------------------------
G|--3--3--3--3--3--3--3--3--3--3--3--3--3--3--3--0--
C|--------------------------------------------------

F|--------------------------------------------------
C|--------------------------------------------------
G|--5--5--5--5--5--5--5--5--6--6--6--6--6--6--6--6--
C|--------------------------------------------------

Sloka

Prebreakdown (basa kopíruje kotle)
F|-----
C|-----
G|-----
C|--2--

Breakdown 2x
F|--------------------------------------------------
C|--------------------------------------------------
G|--------------------------------------------------
C|--2--2--2-----2--2-----2--2-----2--2-----3--3--3--

F|--------------------------------------------------
C|--------------------------------------------------
G|--------------------------------------------------
C|--2--2--2-----2--2-----2-----6--6--6--6--3--3--3--

F|--------------------------------------------------
C|--------------------------------------------------
G|--------------------------------------------------
C|--2--2--2-----2--2-----2--2-----2--2-----3--3--3--

F|--------------------------------------------------
C|--------------------------------------------------
G|--------------------------------------------------
C|-----2--2-----2--2-----2-----6--6--6--6--3--3--3--

Refrén

Outro
F|--------------------------------------------------
C|--------------------------------------------------
G|--------------1--1--1--1--------------1--1--1--1--
C|--2--2--2--2-----------------2--2--2--------------

Use manual mode to free up cursor. Paste any tab in acousterr tab maker and we'll play it !!!
tabs and chords, guitar tabs, music transcription, music technology, deep learning, music information retrieval, transcribe into tabs & chords, chordify, music renditions, songsterr, reverbnation, tabulature, bollywood chords, ultimate guitar, yousician, guitar lessons, acoustic guitar, electric guitar, guitar tuner, 911 tabs