Bass Tabs for Been Down So Long

(/) Slide Up  (\) Slide Down  (h) Hammer On  (p) Pull Off  (b) Bend (r) Release (v) Vibrato (x) Muted

Tabs for Song : 
BPM : 124

 
G|--------------------------------------------------------------
D|-----------------------5--7--9-----------------------5--7--9--
A|--7--6--5-----------7-----------7--6--5-----------7-----------
E|-----------7--5--3-----------------------7--5--3--------------


G|--------------------------------------
D|--------------------------------------
A|--7--6--5-----------7--6--5-----------
E|-----------7--5--3-----------7--5--3--


G|--------------------------------------------------14-13-12-
D|--7--6--5-----------7--6--5--------------10-12-14----------
A|-----------7--6--5-----------7--6--5--12-------------------
E|-----------------------------------------------------------
 


G|-----------------------------
D|--9--9--9--9--9--9--9--9--7--
A|-----------------------------
E|-----------------------------
tabs and chords, guitar tabs, music transcription, music technology, deep learning, music information retrieval, transcribe into tabs & chords, chordify, music renditions, songsterr, reverbnation, tabulature, bollywood chords, ultimate guitar, yousician, guitar lessons, acoustic guitar, electric guitar, guitar tuner, 911 tabs