Guitar Tabs for Beat It (bailey)

(/) Slide Up  (\) Slide Down  (h) Hammer On  (p) Pull Off  (b) Bend (r) Release (v) Vibrato (x) Muted

Tabs for Song : 

Song lyrics here
E|-----------------------------------------------------------------------------------------------------------------
B|-----------------------------------------------------------------------------------------------------------------
G|-----------------------------------------------------------------------------------------------------------------
D|-----------5--2--4--2--0--0--------------5--2--4--2--0--------------5--2--4--2--0--0--------------5--2--4--2--0--
A|--------2-----------------------------2--------------------------2-----------------------------2-----------------
E|--0--3--------------------------0--3-----------------------0--3--------------------------0--3--------------------

E|-----------------------------------------------------------------------------------------------------------------------
B|-----------------------------------------------------------------------------------------------------------------------
G|-----------------------------------------------------------------------------------------------------------------------
D|-----------------------------------------------------------------------------------------------------------------------
A|--7--7-----7-----5--5-----5-----7--7-----7-----5--5-----5-----3--3-----3-----5--5-----5-----7--7-----7-----5--5-----5--
E|-----------------------------------------------------------------------------------------------------------------------



E|-----------------------------------------------------------------------------------------------------------------------
B|-----------------------------------------------------------------------------------------------------------------------
G|-----------------------------------------------------------------------------------------------------------------------
D|-----------------------------------------------------------------------------------------------------------------------
A|--7--7-----7-----5--5-----5-----7--7-----7-----5--5-----5-----3--3-----3-----5--5-----5-----7--7-----7-----5--5-----5--
E|-----------------------------------------------------------------------------------------------------------------------

E|-----------------------------------------------------------------------------------------------------------------
B|-----------------------------------------------------------------------------------------------------------------
G|-----------------------------------------------------------------------------------------------------------------
D|-----------5--2--4--2--0--0--------------5--2--4--2--0--------------5--2--4--2--0--0--------------5--2--4--2--0--
A|--------2-----------------------------2--------------------------2-----------------------------2-----------------
E|--0--3--------------------------0--3-----------------------0--3--------------------------0--3--------------------

E|-----------------------------------------------------------------------------------------------------------------
B|-----------------------------------------------------------------------------------------------------------------
G|-----------------------------------------------------------------------------------------------------------------
D|-----------5--2--4--2--0--0--------------5--2--4--2--0--------------5--2--4--2--0--0--------------5--2--4--2--0--
A|--------2-----------------------------2--------------------------2-----------------------------2-----------------
E|--0--3--------------------------0--3-----------------------0--3--------------------------0--3--------------------

E|--------------------------------------------------------------------------------------------------------------------
B|--------------------------------------------------------------------------------------------------------------------
G|--------------------------------------------------------------------------------------------------------------------
D|-----------5--2--4--2--0--0--------------5--2--4--2--0--------------------------------------------------------------
A|--------2-----------------------------2--------------------7--7-----7-----5--5-----5-----7--7-----7-----5--5-----5--
E|--0--3--------------------------0--3--------------------------------------------------------------------------------

E|-----------------------------------------------------------------------------------------------------------------------
B|-----------------------------------------------------------------------------------------------------------------------
G|-----------------------------------------------------------------------------------------------------------------------
D|-----------------------------------------------------------------------------------------------------------------------
A|--3--3-----3-----5--5-----5-----7--7-----7-----5--5-----5-----7--7-----7-----5--5-----5-----7--7-----7-----5--5-----5--
E|-----------------------------------------------------------------------------------------------------------------------

E|-----------------------------------------------------------------------------------------------------------------------
B|-----------------------------------------------------------------------------------------------------------------------
G|-----------------------------------------------------------------------------------------------------------------------
D|-----------------------------------------------------------------------5--2--4--2--0--0--------------5--2--4--2--0-----
A|--3--3-----3-----5--5-----5-----7--7-----7-----5--5-----5-----------2-----------------------------2--------------------
E|--------------------------------------------------------------0--3--------------------------0--3-----------------------

E|-----------------------------------------------------------------------------------------------------------------
B|-----------------------------------------------------------------------------------------------------------------
G|-----------------------------------------------------------------------------------------------------------------
D|-----------5--2--4--2--0--0--------------5--2--4--2--0--------------5--2--4--2--0--0--------------5--2--4--2--0--
A|--------2-----------------------------2--------------------------2-----------------------------2-----------------
E|--0--3--------------------------0--3-----------------------0--3--------------------------0--3--------------------

E|-----------------------------------------------------------------------------------------------------------------------
B|-----------------------------------------------------------------------------------------------------------------------
G|-----------------------------------------------------------------------------------------------------------------------
D|-----------5--2--4--2--0--0--------------5--2--4--2--0--------2--2--2-----2--2--2-----2--2--2-----2--2--2-----2--2--2--
A|--------2-----------------------------2--------------------------------------------------------------------------------
E|--0--3--------------------------0--3--------------------0--------------------------------------------------------------

E|-----------------------------------------------------------------------------------------------------------------------
B|-----------------------------------------------------------------------------------------------------------------------
G|-----------------------------------------------------------------------------------------------------------------------
D|--2--2--2-----2--2--2-----2--2--2-----2--2--2-----2--2--2-----2--2--2-----2--2--2-----2--2--2-----2--2--2-----2--2--2--
A|-----------------------------------------------------------------------------------------------------------------------
E|-----------------------------------------------------------------------------------------------------------------------

E|-----------------------------------------------------------------------------------------------------------------------
B|-----------------------------------------------------------------------------------------------------------------------
G|-----------------------------------------------------------------------------------------------------------------------
D|--2--2--2--------------------------------------------------------------------------------------------------------------
A|--------------7--7--7-----5--5--5-----7--7--7-----5--5--5-----3--3--3-----5--5--5-----7--7--7-----5--5--5-----7--7--7--
E|-----------------------------------------------------------------------------------------------------------------------

E|-----------------------------------------------------------------------------------------------------------------------
B|-----------------------------------------------------------------------------------------------------------------------
G|-----------------------------------------------------------------------------------------------------------------------
D|-----------------------------------------------------------------------------------------------------------------------
A|--5--5--5-----7--7--7-----5--5--5-----3--3--3-----5--5--5-----7--7--7-----5--5--5--------------------------------------
E|--------------------------------------------------------------------------------------0--0--0-----0--0--0-----0--0--0--

E|-----------------------------------------------------------------------------------------------------------------------
B|-----------------------------------------------------------------------------------------------------------------------
G|-----------------------------------------------------------------------------------------------------------------------
D|-----------------------------------------------------------------------------------------------------------------------
A|-----------------------------------------------------------------------------------------------------------------------
E|--0--0--0-----0--0--0-----0--0--0-----0--0--0-----0--0--0-----0--0--0-----0--0--0-----0--0--0-----0--0--0-----0--0--0--

E|--------------------------------------
B|--------------------------------------
G|--------------------------------------
D|--------------------------------------
A|--------------------------------------
E|--0--0--0-----0--0--0-----0--0--0-----





E|--
B|--
G|--
D|--
A|--
E|--

Song lyrics here
E|--
B|--
G|--
D|--
A|--
E|--

Paste any tab in acousterr's tab maker and we'll play it !!!
Now supports capo and sound effects for vibrato/pull-off/hammer/bends/mutes etc !!! Checkout help section
tabs and chords, guitar tabs, music contests, music covers, songsterr, reverbnation, renditions, tabulature, bollywood chords, ultimate guitar, yousician, guitar lessons, torrins, fender, gibson, acoustic guitar, electric guitar, youtube covers, gootar, guitar tuner, A-Z tabs, 911 tabs