Guitar Tabs for Battle Scene

(/) Slide Up  (\) Slide Down  (h) Hammer On  (p) Pull Off  (b) Bend (r) Release (v) Vibrato (x) Muted

Tabs for Song : 

Song lyrics here
E|-----------------------
B|-----------------------
G|--3--5--8--5--8--6--5--
D|-----------------------
A|-----------------------
E|-----------------------

E|--------------
B|--------------
G|--3--5--1-----
D|-----------3--
A|--------------
E|--------------

E|-----------------------------
B|-----------------------------
G|--10-6--5--1--3--5--10-5--3--
D|-----------------------------
A|-----------------------------
E|-----------------------------
----
E|--------------
B|--------------
G|--6--5--1--3--
D|--------------
A|--------------
E|--------------


Song lyrics here
E|--
B|--
G|--
D|--
A|--
E|--

Paste any tab in acousterr's tab maker and we'll play it !!!
Now supports capo and sound effects for vibrato/pull-off/hammer/bends/mutes etc !!! Checkout help section
tabs and chords, guitar tabs, music transcription, music technology, deep learning, music information retrieval, transcribe into tabs & chords, chordify, music renditions, songsterr, reverbnation, tabulature, bollywood chords, ultimate guitar, yousician, guitar lessons, acoustic guitar, electric guitar, guitar tuner, 911 tabs