Bass Lines - Bass Tabs

(/) Slide Up  (\) Slide Down  (h) Hammer On  (p) Pull Off  (b) Bend (r) Release (v) Vibrato (x) Muted

Tabs for Song : 
BPM : 200


#1 FUNKY BASS LIONE TO USE WHENEVER
G|-----------------------------------------------
D|-----------------------------------------------
A|--------------7-----9-----9-----7--------------
E|--7-----9-----------------------------9-----7--


#2 FUNKY BASS LINE TO USE WHEREVER
G|-----------------------------------------------
D|--------------------------------------7-----9--
A|--------------7-----9-----7-----9--------------
E|--7-----9--------------------------------------


#3 (BREAKDOWN FOR I WANT WHAT I WANT)
G|-----------------------------------------------------------------------------------
D|--------------------------------------------------------------7-----9--------------
A|--------------------------------------------------7-----9-----------------7-----9--
E|--7-----9-----9-----9-----7-----9-----9-----9--------------------------------------


#4 (BREAKDOWN FOR I WANT WHAT I WANT)
G|-----------------------------------------------------------------------------------------------------------
D|--------------------------------------------------------------------------------------7-----9-----7--------
A|--------------------------------------------------7-----9-----9-----9-----7-----9-----------------------9--
E|--7-----9-----9-----9-----7-----9-----9-----9--------------------------------------------------------------


#5 (BREAKDOWN FOR I WANT WHAT I WANT)
G|-----------------------------------------------------------------------------------------------
D|--------------------------------------------------------------------------------------7--------
A|--------------------------------------------------7-----9-----9-----9-----7-----9-----------9--
E|--7-----9-----9-----9-----7-----9-----9-----9--------------------------------------------------


CLUJMSY VERSE
G|----------------------------------------------------------
D|---------------------------------------------------------
A|----------------------------------------------------
E|--7--7--7--7--4--4--4--4--2--2--2--2--2---4--2--4--


Use manual mode to free up cursor. Paste any tab in acousterr tab maker and we'll play it !!!

About Long interspersed nuclear element : Long interspersed nuclear elements (LINEs) are a group of non-LTR (long terminal repeat) retrotransposons that are widespread in the genome of many eukaryotes . LINEs are transcribed into mRNA and translated into protein that acts as a reverse transcriptase . They make up around 21.1% of the human genome The human genome contains an estimated 100,000 truncated and 4,000 full-length LINE-1 elements . The only abundant LINE in humans is LINE1 . Comparisons of LINE DNA sequences can be used to date transposon insertion in the genome . LINE-derived sequence was published by J. Adams et et. in 1980 . LINE

tabs and chords, guitar tabs, music transcription, music technology, deep learning, music information retrieval, transcribe into tabs & chords, chordify, music renditions, songsterr, reverbnation, tabulature, bollywood chords, ultimate guitar, yousician, guitar lessons, acoustic guitar, electric guitar, guitar tuner, 911 tabs