Guitar Tabs for Basic Rock And Roll Bass-line

(/) Slide Up  (\) Slide Down  (h) Hammer On  (p) Pull Off  (b) Bend (r) Release (v) Vibrato (x) Muted

Tabs for Song : 
BPM : 200

Song lyrics here 
E|--------------------------------------------------------------------------------------------------------
B|--------------------------------------------------------------------------------------------------------
G|--------------------------------------------------------------------------------------------------------
D|---------------------------0--0--------------------------------------------0--0-------------------------
A|---------------2--2--4--4--------4--4--2--2--------------------2--2--4--4--------4--4--2--2--------0--0-
E|---0--0--4--4--------------------------------4--4--0--0--4--4--------------------------------4--4-------

Song lyrics here 
E|----------------------------------------------------------------------------------------------------
B|----------------------------------------------------------------------------------------------------
G|---------------------------0--0---------------------------------------------------------------------
D|---------------2--2--4--4--------4--4--2--2--------------------------------0--0---------------------
A|---0--0--4--4--------------------------------4--4--------------2--2--4--4--------4--4--2--2---------
E|---------------------------------------------------0--0--4--4--------------------------------4--4---

Use manual mode to free up cursor. Paste any tab in acousterr tab maker and we'll play it !!!
E|--------------------------------------------------------------------------------------------------
B|--------------------------------------------------------------------------------------------------
G|--------------------------------------------------------------------------------------------------
D|--------------0--0--------------------------------------------------------0--0---------------------
A|--2--2--4--4--------4--4--2--2--0--0--------------------------2--2--4--4--------4--4--2--2---------
E|--------------------------------------4--4--2--2--0--0--4--4--------------------------------4--4--0
tabs and chords, guitar tabs, music transcription, music technology, deep learning, music information retrieval, transcribe into tabs & chords, chordify, music renditions, songsterr, reverbnation, tabulature, bollywood chords, ultimate guitar, yousician, guitar lessons, acoustic guitar, electric guitar, guitar tuner, 911 tabs