Guitar Tabs for Basic African Gospel Guitar Tutorial

(/) Slide Up  (\) Slide Down  (h) Hammer On  (p) Pull Off  (b) Bend (r) Release (v) Vibrato (x) Muted

Tabs & Chords
BPM : 98.0
Check Track 2 for Chord Positions 

                D#m                     D                 B                       C#m            
E|--5-----4--------------------7--7-----------------5-----------------------------------7-----9--
B|-----------------------7--7--------------------7-----------0-----4-----0-----------------------
G|--------------------6-----------------------6--------------------------------------------------
D|-----------------7--------------------0--7--------------------------4--------------------------
A|--------------6-----------------------------------------6-----------------------4--------------
E|-----------------------------------------------------------------------------6-----------------

                   E                 B                       A                 E                 
E|-----12-12-13-------------4-----0--------------------------------------7--------------4-----0--
B|-----------------------------------7-----------------------4-----------------------------------
G|-----------------------7-----------------------------------------6-----------------7-----------
D|--------------------6--------------------0--------------------------------------6--------------
A|-----------------7--------------------------------6-----------0-----4--------7-----------------
E|--------------------------------------7--------7--------7--------------------------------------

       B                 A              E                       B                    A        
E|-----------------------0--------------4-----------4-----0--------------------0--------------
B|-----------4--7--7--7-----4--------------------------------7--------4--7--7-----4-----------
G|-----------------------------------------------7--------------------------------------------
D|-----0--------------------------------------6-----------------0--------------------------4--
A|-----------------------------0--4--------7-----------------------------------------0--4-----
E|--------------------------------------------------------------------------------------------

                         E           A     D# 
E|-----7-----7--7-----7--4-----4--------------
B|-----------------------------------7--6-----
G|--------------------------------------------
D|--------------------------------------------
A|-----------------------------------------6--
E|--7-----------------------------------------

Guitar Tabs for Basic African Gospel Guitar Tutorial






                D#m                     D                 B                       C#m            
E|--------------6-----------------------2-----------------2-----------------------4--------------
B|--------------7-----------------------3-----------------4-----------------------5--------------
G|--------------8-----------------------2-----------------4-----------------------6--------------
D|--------------8-----------------------0-----------------4-----------------------6--------------
A|--------------6-----------------------------------------2-----------------------4--------------
E|-----------------------------------------------------------------------------------------------

                   E                 B                       A                 E                 
E|-----------------0-----------------2-----------------------0-----------------0-----------------
B|-----------------0-----------------4-----------------------2-----------------0-----------------
G|-----------------1-----------------4-----------------------2-----------------1-----------------
D|-----------------2-----------------4-----------------------2-----------------2-----------------
A|-----------------2-----------------2-----------------------0-----------------2-----------------
E|-----------------0-----------------------------------------------------------0-----------------

       B                 A              E                       B                    A        
E|-----2-----------------0--------------0-----------------------2--------------------0--------
B|-----4-----------------2--------------0-----------------------4--------------------2--------
G|-----4-----------------2--------------1-----------------------4--------------------2--------
D|-----4-----------------2--------------2-----------------------4--------------------2--------
A|-----2-----------------0--------------2-----------------------2--------------------0--------
E|--------------------------------------0-----------------------------------------------------

                         E           A     D# 
E|-----------------------0-----------0-----6--
B|-----------------------0-----------2-----8--
G|-----------------------1-----------2-----8--
D|-----------------------2-----------2-----8--
A|-----------------------2-----------0-----6--
E|-----------------------0--------------------

tabs and chords, guitar tabs, music transcription, music technology, deep learning, music information retrieval, transcribe into tabs & chords, chordify, music renditions, songsterr, reverbnation, tabulature, bollywood chords, ultimate guitar, yousician, guitar lessons, acoustic guitar, electric guitar, guitar tuner, 911 tabs