Guitar Tabs for Ban Ja Rani - Tumhari Sulu Tabs

(/) Slide Up  (\) Slide Down  (h) Hammer On  (p) Pull Off  (b) Bend (r) Release (v) Vibrato

Tabs for Song : Ban Ja Rani

Ban ja tu meri rani
E|-----------------------------
B|--0--0--0-----1--0-----------
G|--------------------2--2-----
D|-----------------------------
A|-----------------------------
E|-----------------------------

Tenu mahal dawa dunga
E|--------------------------------
B|-----------------0--0-----------
G|--2--2--0--0--0-----------2-----
D|--------------------------------
A|--------------------------------
E|--------------------------------

Ban meri mehbooba
E|-----------------------------
B|--0--0--0-----1--0-----------
G|--------------------2--2-----
D|-----------------------------
A|-----------------------------
E|-----------------------------

Main tenu Taj pawa dunga 
E|--------------------------------
B|-----------------0--0-----------
G|--2--2--0--0--0-----------2-----
D|--------------------------------
A|--------------------------------
E|--------------------------------

Sun meri rani rani
E|-----------------------------
B|-----0--1--3--3--0--0--------
G|--2--------------------2-----
D|-----------------------------
A|-----------------------------
E|-----------------------------

Ban meri rani rani
E|--------------------------
B|-----0--1--3--3-----------
G|--2--------------0--0-----
D|--------------------------
A|--------------------------
E|--------------------------

Shahjahaan main tera
E|-----------------------------
B|--0--0--0--0--1--0-----------
G|--------------------2--2-----
D|-----------------------------
A|-----------------------------
E|-----------------------------

Tenu Mumtaj bana dunga
E|-----------------------------------
B|--------------------0--0-----------
G|--2--2--2--0--0--0-----------2-----
D|-----------------------------------
A|-----------------------------------
E|-----------------------------------

Ban ja tu meri rani
E|--------------------------
B|-----0--3--1--0-----------
G|--2--------------2--2-----
D|--------------------------
A|--------------------------
E|--------------------------

Tenu mahal dawa dunga…
E|-----------------------------
B|-----------------0--0--------
G|--2--0-----------------2-----
D|--------2--2--2--------------
A|-----------------------------
E|-----------------------------

Badan tere di khushboo
E|-----0--0--------------------
B|-----------3--0--1--1--------
G|--2--------------------2-----
D|-----------------------------
A|-----------------------------
E|-----------------------------

Mainu sohn na deve ni
E|-----------------------------------------
B|--3--0-----------0--0-----1--0--0--------
G|--------2--0--2--------2-----------2-----
D|-----------------------------------------
A|-----------------------------------------
E|-----------------------------------------

Raatan nu uth uth ke
E|-----0--0--------------------
B|-----------3--0--1--1--------
G|--2--------------------2-----
D|-----------------------------
A|-----------------------------
E|-----------------------------

Socha baare tere ni 
E|-----------------------------------------
B|--3--0-----------0--0-----1--0--0--------
G|--------2--0--2--------2-----------2-----
D|-----------------------------------------
A|-----------------------------------------
E|-----------------------------------------

Sun meri rani rani
E|-----------------------------
B|-----0--1--3--3--0--0--------
G|--2--------------------2-----
D|-----------------------------
A|-----------------------------
E|-----------------------------

Ban meri rani rani
E|-----------------------------
B|-----0--1--3--3--0--0--------
G|--2--------------------2-----
D|-----------------------------
A|-----------------------------
E|-----------------------------

Add more lines by placing cursor below and adding notes
tabs and chords, guitar tabs, music transcription, music technology, deep learning, music information retrieval, transcribe into tabs & chords, chordify, music renditions, songsterr, reverbnation, tabulature, bollywood chords, ultimate guitar, yousician, guitar lessons, acoustic guitar, electric guitar, guitar tuner, 911 tabs