Ball Peen Hammer - Joe Bonamassa - Guitar Tabs

Track 1
    
                                                                                                                                                                                                                                                                                                                                                                                                                                                                                                                                                                                                                                                                                                                                                                                                                                                                                                                                                                                                                                                                                                                                                                                              
E|-----4-----------4-----------4-----------4----|------4-----------4-----------4-----------4----|
B|--------4-----4-----4-----4-----4-----4-----4-|---4-----4-----4-----4-----4-----4-----4-----4-|
G|----------------------------------------------|-----------------------------------------------|
D|--1-------------------------------------------|1----------------------------------------------|
A|-----------4-----------3----------------------|------------4-----------3----------------------|
E|-----------------------------------2----------|------------------------------------2----------|

    
                                                                                                                                                                                                                                                                                                                                                                                                                                                                                                                                                                                                                                                                                                                                                                                                                                                                                                                                                                                                                                                                                                                                                                                              
E|--------4-----------4-----------4-----------4----|------4-----------4-----------4-----------4----|
B|-----4-----4-----4-----4-----4-----4-----4-----4-|---4-----4-----4-----4-----4-----4-----4-----4-|
G|-------------------------------------------------|-----------------------------------------------|
D|--1----------------------------------------------|1----------------------------------------------|
A|--------------4-----------3----------------------|------------4-----------3----------------------|
E|--------------------------------------2----------|------------------------------------2----------|

    
                                                                                                                                                                                                                                                                                                                                                                                                                                                                                                                                                                                                                                                                                                                                                                                                                                                                                                                                                                                                                                                                                                                                                                                              
E|--------4-----------4-----------4-----------4----|------4-----------4-----------4-----------4----|
B|-----4-----4-----4-----4-----4-----4-----4-----4-|---4-----4-----4-----4-----4-----4-----4-----4-|
G|-------------------------------------------------|-----------------------------------------------|
D|--1----------------------------------------------|1----------------------------------------------|
A|--------------4-----------3----------------------|------------4-----------3----------------------|
E|--------------------------------------2----------|------------------------------------2----------|

    
                                                                                                                                                                                                                                                                                                                                                                                                                                                                                                                                                                                                                                                                                                                                                                                                                                                                                                                                                                                                                                                                                                                                                                                              
E|--------4-----------4-----------4-----------4----|------4-----------4-----------4-----------4----|
B|-----4-----4-----4-----4-----4-----4-----4-----4-|---4-----4-----4-----4-----4-----4-----4-----4-|
G|-------------------------------------------------|-----------------------------------------------|
D|--1----------------------------------------------|1----------------------------------------------|
A|--------------4-----------3----------------------|------------4-----------3----------------------|
E|--------------------------------------2----------|------------------------------------2----------|

    
                                                                                                                                                                                                                                                                                                                                                                                                                                                                                                                                                                                                                                                                                                                                                                                                                                                                                                                                                                                                                                                                                                                                                                                              
E|-----4-----------4-----------4-----------4----|------4-----------4-----------4-----------4----|
B|--------4-----4-----4-----4-----4-----4-----4-|---4-----4-----4-----4-----4-----4-----4-----4-|
G|----------------------------------------------|-----------------------------------------------|
D|--1-------------------------------------------|1----------------------------------------------|
A|-----------4-----------2----------------------|------------4-----------2----------------------|
E|----------------------------------------------|-----------------------------------------------|

    
                                                                                                                                                                                                                                                                                                                                                                                                                                                                                                                                                                                                                                                                                                                                                                                                                                                                                                                                                                                                                                                                                                                                                                                              
E|--------4-----------4-----------2-----------2----|---4-----------4-----------4-----------4----|
B|-----4-----4-----4-----4-----2-----2-----2-----2-|------4-----4-----4-----4-----4-----4-----4-|
G|--------------1----------------------------------|--------------------------------------------|
D|--------------------------------------4----------|1-------------------------------------------|
A|-------------------------------------------------|---------4-----------3----------------------|
E|--4-----------------------2----------------------|---------------------------------2----------|

    
                                                                                                                                                                                                                                                                                                                                                                                                                                                                                                                                                                                                                                                                                                                                                                                                                                                                                                                                                                                                                                                                                                                                                                                              
E|-----4-----------4-----------4-----------4----|------4-----------4-----------4-----------4----|
B|--------4-----4-----4-----4-----4-----4-----4-|---4-----4-----4-----4-----4-----4-----4-----4-|
G|----------------------------------------------|-----------------------------------------------|
D|--1-------------------------------------------|1----------------------------------------------|
A|-----------4-----------3----------------------|------------4-----------3----------------------|
E|-----------------------------------2----------|------------------------------------2----------|

    
                                                                                                                                                                                                                                                                                                                                                                                                                                                                                                                                                                                                                                                                                                                                                                                                                                                                                                                                                                                                                                                                                                                                                                                              
E|--------4-----------4-----------4-----------4----|------4-----------4-----------4-----------4----|
B|-----4-----4-----4-----4-----4-----4-----4-----4-|---4-----4-----4-----4-----4-----4-----4-----4-|
G|-------------------------------------------------|-----------------------------------------------|
D|--1----------------------------------------------|1----------------------------------------------|
A|--------------4-----------3----------------------|------------4-----------3----------------------|
E|--------------------------------------2----------|------------------------------------2----------|

    
                                                                                                                                                                                                                                                                                                                                                                                                                                                                                                                                                                                                                                                                                                                                                                                                                                                                                                                                                                                                                                                                                                                                                                                              
E|--------4-----------4-----------4-----------4----|------4-----------4-----------4-----------4----|
B|-----4-----4-----4-----4-----4-----4-----4-----4-|---4-----4-----4-----4-----4-----4-----4-----4-|
G|-------------------------------------------------|-----------------------------------------------|
D|--1----------------------------------------------|1----------------------------------------------|
A|--------------4-----------3----------------------|------------4-----------3----------------------|
E|--------------------------------------2----------|------------------------------------2----------|

    
                                                                                                                                                                                                                                                                                                                                                                                                                                                                                                                                                                                                                                                                                                                                                                                                                                                                                                                                                                                                                                                                                                                                                                                              
E|--------4-----------4-----------4-----------4----|------4-----------4-----------4-----------4----|
B|-----4-----4-----4-----4-----4-----4-----4-----4-|---4-----4-----4-----4-----4-----4-----4-----4-|
G|-------------------------------------------------|-----------------------------------------------|
D|--1----------------------------------------------|1----------------------------------------------|
A|--------------4-----------3----------------------|------------4-----------3----------------------|
E|--------------------------------------2----------|------------------------------------2----------|

    
                                                                                                                                                                                                                                                                                                                                                                                                                                                                                                                                                                                                                                                                                                                                                                                                                                                                                                                                                                                                                                                                                                                                                                                              
E|--------4-----------4-----------4-----------4----|---4-----------4-----------4-----------4----|
B|-----4-----4-----4-----4-----4-----4-----4-----4-|------4-----4-----4-----4-----4-----4-----4-|
G|-------------------------------------------------|--------------------------------------------|
D|--1----------------------------------------------|1-------------------------------------------|
A|--------------4-----------3----------------------|---------4-----------2----------------------|
E|--------------------------------------2----------|--------------------------------------------|

    
                                                                                                                                                                                                                                                                                                                                                                                                                                                                                                                                                                                                                                                                                                                                                                                                                                                                                                                                                                                                                                                                                                                                                                                              
E|--------4-----------4-----------4-----------4----|------4-----------4-----------2-----------2----|
B|-----4-----4-----4-----4-----4-----4-----4-----4-|---4-----4-----4-----4-----2-----2-----2-----2-|
G|-------------------------------------------------|------------1----------------------------------|
D|--1----------------------------------------------|------------------------------------4----------|
A|--------------4-----------2----------------------|-----------------------------------------------|
E|-------------------------------------------------|4-----------------------2----------------------|

    
                                                                                                                                                                                                                                                                                                                                                                                                                                                                                                                                                                                                                                                                                                                                                                                                                                                                                                                                                                                                                                                                                                                                                                                              
E|--------4-----------4-----------4-----------4----|---4-----------4-----------4-----------4----|
B|-----4-----4-----4-----4-----4-----4-----4-----4-|------4-----4-----4-----4-----4-----4-----4-|
G|-------------------------------------------------|--------------------------------------------|
D|--1----------------------------------------------|1-------------------------------------------|
A|--------------4-----------3----------------------|---------4-----------2----------------------|
E|--------------------------------------2----------|--------------------------------------------|

    
                                                                                                                                                                                                                                                                                                                                                                                                                                                                                                                                                                                                                                                                                                                                                                                                                                                                                                                                                                                                                                                                                                                                                                                              
E|--------4-----------4-----------4-----------4----|------4-----------4-----------2-----------2----|
B|-----4-----4-----4-----4-----4-----4-----4-----4-|---4-----4-----4-----4-----2-----2-----2-----2-|
G|-------------------------------------------------|------------1----------------------------------|
D|--1----------------------------------------------|------------------------------------4----------|
A|--------------4-----------2----------------------|-----------------------------------------------|
E|-------------------------------------------------|4-----------------------2----------------------|

About Sloe Gin (album) : Sloe Gin is the sixth studio album by American blues rock musician Joe Bonamassa . The title of the album is a reference to the song of the same name by English musician Tim Curry . Music website Allmusic gave Sloe Gin four out of five stars . Reviewer Steve Leggett said Bonamassa had "stepped up his songwriting ... and cut way down on his clich├ęs" It had a contribution from notable artists like Sloe Gin,Joe Bonamassa,Kevin Shirley,J&R Adventures,Tim Curry. Its music is influenced by genres - blues rock.

tabs and chords, guitar tabs, music transcription, music technology, deep learning, music information retrieval, transcribe into tabs & chords, chordify, music renditions, songsterr, reverbnation, tabulature, bollywood chords, ultimate guitar, yousician, guitar lessons, acoustic guitar, electric guitar, guitar tuner, 911 tabs